Our Lady Peace - Supermans Dead Chords & Tabs

 

Supermans Dead Chords & Tabs

Our Lady Peace Chords & Tabs

Version: 4 Type: Tab 0 ratings
1 star 2 stars 3 stars 4 stars 5 stars
comments

Supermans Dead Tab

Submitted by: Menace
Email- Menace210@aol.com

Dont palm mute (put fingers slightly over strings)

E----------------------------------------------------------------
B----------------------------------------------------------------
G---------------6-6----------------------------------------------
D--8-8-8-X-X-X--6-6-6-6-X-X-X-9-9--------------------------------
A--8-8-8-X-X-X--4-4-6-6-X-X-X-9-9--------------------------------
E--6-6-6-X-X-X------4-4-X-X-X-7-7--------------------------------

Follow strumming patterns

Dist. (Pre Cor)

E----------------------------------------------------------------
B----------------------------------------------------------------
G--4-4-4-4-4-4-4----8-8-8---8-8-8---8-8-8---8-8-8b/9-9-9---------
D--4-4-4-4-4-4-4--8-8-8-8-8-8-8-8-8-8-8-8---8-8-8b/9-9-9---------
A--2-2-2-2-2-2-2--8-6-6-6-8-6-6-6-8-6-6-6------------------------
E-----------------6-------6-------6------------------------------
                  "Now Woohooooooooooooo"
Chorus
[ Tab from: http://www.guitartabs.cc/tabs/o/our_lady_peace/supermans_dead_tab_ver_4.html ]
E---------------------------------------------------------------
B---------------------------------------------------------------
G---------------------------------------------------------------
D--8-8--11-11-6-6-9-9-9-9-9-9-9---------------------------------
A--8-8--11-11-6-6-9-9-9-9-9-9-9---------------------------------
E--6-6--9--9--4-4-7-7-7-7-7-7-7---------------------------------
  "IM THINKING WheYeYeY!!"
  
Guitar 2

E---------------------------------------------------------------
B--6-5-6--6-5-6--6-5-6--6-5-6-----------------------------------
G---------------------------------------------------------------
D---------------------------------------------------------------
A---------------------------------------------------------------
E---------------------------------------------------------------
  "Now your worried about your faith"

E---------------------------------------------------------------
B---------------------------------------------------------------
G--2-2-2-2-2-2-2------------------------------------------------
D--2-2-2-2-2-2-2--8---8--8--8--8--8~----------------------------
A--4-4-4-4-4-4-4--8---8--8--8--8--8~----------------------------
E-----------------6---6--6--6--6--6~----------------------------
                 PM..    ..    ..
                 "Alone Alone Alone"

THen----

CHORUS


Pre Chor.

--------
Im sorry about the other one i hope they dont post it up! well this is the fixed one. So enjoy~
MeNaCe
Comments