Our Lady Peace - Supermans Dead Chords & Tabs

 

Supermans Dead Chords & Tabs

Our Lady Peace Chords & Tabs

Version: 1 Type: Chords 0 ratings
1 star 2 stars 3 stars 4 stars 5 stars
comments

Supermans Dead Chords

   
Author: Our Lady Peace
Song: Superman's Dead
Tabbed By: Kevin Hills 
Comments/Corrections: snoman@attcanada.net 
		      bandit_118@hotmail.com 

Tuning is like most Our Lady Peace tunes...
Half a step down(Eb Ab Db Gb)

The song is really easy. There are only 
four parts to remember. Just listen to 
the song to get the timing.

1. Most of the song goes like this.

G|----------------|
D|----------------|
A|----5-------3---|
E|7-------5-------|
[ Tab from: http://www.guitartabs.cc/tabs/o/our_lady_peace/supermans_dead_crd.html ]
2.The last part of every chorus, skip the second last note and
hold the last note.

G|----------------|
D|----------------|
A|----5---3-------|
E|7---------------|

3. Middle of song. You'll know when you hear it.
(Just before the last part)
G|----------------|
D|5---4---3---2---|
A|----------------|
E|----------------|

4. End Of the Song ("Doesn't anybody ever know...")

G|----------------|
D|----------------|
A|----5-------7---|
E|3-------5-------|

That's all there is to it.
Have Fun.
Comments