Our Lady Peace - Stealing Babies Chords & Tabs

 

Stealing Babies Chords & Tabs

Our Lady Peace Chords & Tabs

Version: 2 Type: Tab 0 ratings
1 star 2 stars 3 stars 4 stars 5 stars
comments

Stealing Babies Tab

   
Band:Our Lady Peace 
   Song:Stealing Babies 
   Album:Happiness...Is Not A Fish That You Can Catch 
   Send any corrections or comments to sl_mcclure@hotmail.com 

   Standard tuning 

   Intro/Verse: Bm A G 
   e-------------3-3-3-3-3-3-3- 
   B-3-3-2-2-2-2-3-3-3-3-3-3-3- 
   G-4-4-2-2-2-2-0-0-0-0-0-0-0- 
   D-4-4-2-2-2-2-0-0-0-0-0-0-0- 
   A-2-2-0-0-0-0-2-2-2-2-2-2-2- 
   E-------------3-3-3-3-3-3-3- 

   Pre-Chorus: "How should I say 'I'm so sorry'" 
   e-----------------3-3-3-3--------- 
   B-3-3-3-3-3---0-2-3-3-3-3-2-2-2-2- 
   G-4-4-4-4-4-0-2-2-0-0-0-0-2-2-2-2- 
   D-4-4-4-4-4-2-2-2-0-0-0-0-2-2-2-2- 
   A-2-2-2-2-2-0-0-0-2-2-2-2-0-0-0-0- 
   E-----------------3-3-3-3--------- 

   Repeat and lead into chorus with F# 
[ Tab from: http://www.guitartabs.cc/tabs/o/our_lady_peace/stealing_babies_tab_ver_2.html ]
   Bridge: 
   e---------------------------------------------- 
   B---------------------------------------------- 
   G-------14----14/16-13------------------------- 
   D-14/16----16----------14-------12----12/14-14- 
   A-------------------------12/14----14---------- 
   E---------------------------------------------- 

   Outro: D A G A 
   D A G 

   Lyrics: 
   I'm teething on the answers you're saving 
   How are you going to make me understand 
   I'm dreaming while you're stealing babies 
   How are you going to help me sleep again 

   How should I say "I'm so sorry" 
   How should I pray to know that we're alive 

   Eve stands alone 
   By the knock on the door 
   By the thin in her bones 
   She's courageous and loving 
   Exhausted & cold 
   She's not ready to go 
   But the ghost on the phone 
   Helps her safely into her dream 

   You're leaving pieces of family 
   How are you going to help them understand 
   I'm screaming while you're stealing babies 
   Why do you want to knock us down again 
Comments