Our Lady Peace - Stealing Babies Chords & Tabs

 

Stealing Babies Chords & Tabs

Our Lady Peace Chords & Tabs

Version: 1 Type: Tab 0 ratings
1 star 2 stars 3 stars 4 stars 5 stars
comments

Stealing Babies Tab

   
##################################################################################
# This file is the author's own work and represents their interpretation of the  #
# song. You may only use this file for private study, scholarship, or research.  #
##################################################################################

Stealing Babies
Our Lady Peace
Happines.....Is not a fish you can catch

transcribed by: Nick Hamner, any questions? cf_25@hotmail.com

Chords:

Bm     (799xxx)
A      (577xxx)
D      (5577xx)
G      (355xxx)
F#     (244xxx)
Em     (022xxx)

Intro/ Chorus Riff
Bm     D       G           Bm     D       G
\ \\\  \ \\ \  \\\\\\\\  | \ \\\  \ \\ \  \\\\\\\\  
  

Riff 1 (verse)

1st Guitar: Play the tab
2nd Guitar: Play the chords above the tab
[ Tab from: http://www.guitartabs.cc/tabs/o/our_lady_peace/stealing_babies_tab.html ]
  Bm                   F#              A                   Em
e------------------------------------------------------------------------
b------------------------------------------------------------------------
g------------------------------------------------------------------------
D----------------------4--4-4-4-4-4-4----------------------2--2-2-2-2-2-2
A----------------------4--4-4-4-4-4-4----------------------2--2-2-2-2-2-2
E-5h7-5h7-5h7-5h7-5h7--2--2-2-2-2-2-2--5h7-5h7-5h7-5h7-5h7-0--0-0-0-0-0-0
   
Chorus:
Intro riff (hit em hard though) 

How should I say.....


Transition riff (played directly after the chorus)

  F#
e------------------------------------------------
b------------------------------------------------
g------------------------------------------------
D-4---4---4---4---4---4---4---4---4---4---4---4---4
A-4---4---4---4---4---4---4---4---4---4---4---4---4
E-2h3-2h3-2h3-2h3-2h3-2h3-2h3-2h3-2h3-2h3-2h3-2h3-2

allllllllllllliiiiiiiiiiiiiiiiiiiiivvvvvvveeeeeeeee


First slow part is accompanied by the bass, with one guitar producing a harmonic off the 7th 
fret of the high e string

Second verse is the same as the first, starting with one half the intro (Bm, D, G)



Thats all I can tab for now, if anyone wants to tab the little bit at the end, please do.
Comments