Our Lady Peace - Somewhere Out There Chords & Tabs

 

Somewhere Out There Chords & Tabs

Our Lady Peace Chords & Tabs

Version: 1 Type: Tab 0 ratings
1 star 2 stars 3 stars 4 stars 5 stars
comments

Somewhere Out There Tab

Somewhere out there by Our Lady Peace
tuning: standard dropped 1/2 step

Intro

Guitar 1  (Light Distortion)
E---------------|---------------
B---------------|---------------
G---7--6--9--7--|--7\4--4/7-----
D---x--x--x--x--|--x-x--x-x-----
A---5--4--7--5--|--5\2--2/5-----
E---------------|---------------

Guitar 2  (Clean)
E|-5---5---3---0---3--------
B|-7---5---3---0---3--------
G|-7---6---4---0---4--------
D|-7---7---5---2---5--------
A|-5---7---5---2---5--------
E|-----5---3---0---3--------

Verse:

E--2---3---0---3
B--3---3---0---3
G--2---0---0---0     x 2
D--0---0---2---0
A------2---2---2
E------3---0---3
[ Tab from: http://www.guitartabs.cc/tabs/o/our_lady_peace/somewhere_out_there_tab.html ]
E--0---3
B--0---3
G--0---0
D--2---0
A--2---2
E--0---3

Verse 2

Chorus
Guitar 1  (Heavy Distortion)
E---------------|---------------
B---------------|---------------
G---7--6--9--7--|--7\4--4/7-----
D---x--x--x--x--|--x-x--x-x-----
A---5--4--7--5--|--5\2--2/5-----
E---------------|---------------

Guitar 2  (Heavy Distortion)
E-------------------------
B-------------------------
G-7-----------------------
D-7---7---5---2--5--------
A-5---7---5---2--5--------
E-----5---3---0--3--------

Verse 3

Chorus

Interlude 
Guitar 1
E------------14----
B--15~---12--------
G------------------  
D------------------  
A------------------
E------------------

Guitar 2
E-------
B-------
G-------
D--2---5
A--2---5
E--0---3        
Comments