Our Lady Peace - Somewhere Out There Chords & Tabs

 

Somewhere Out There Chords & Tabs

Our Lady Peace Chords & Tabs

Version: 2 Type: Bass Tab 0 ratings
1 star 2 stars 3 stars 4 stars 5 stars
comments

Somewhere Out There Bass Tab

Here I have a modified bass tab of Somewhere Out There By Our Lady Peace.
Verse 1 (Play until the drums come in)

G  -------------------------------------------------------------------------|
D  -------------------------------------------------------------------------|
A  -------------------------------------------------------------------------|
C#---0-----0-----5-----5-----/2-----2------/5------5------------------------|

Prechorus (interlude)

G  --------------------------------------------------------------------------|
D  --------------------------------------------------------------------------|
A  --------------------------------------------------------------------------|
C#---2-----2--2----2----0--2-----0--5----5----5------------------------------|

Main Chorus
[ Tab from: http://www.guitartabs.cc/tabs/o/our_lady_peace/somewhere_out_there_btab_ver_2.html ]
G  -------------------------------------------------------------------------|
D  -------------------------------------------------------------------------|
A  -------------------------------------------------------------------------|
C#---0-----0-----7-----7---7-h9-----5-----5-----2---2---2-----/5-----5------|

Repeat from Verse-Prechorus-Chorus

Bridge (same as interlude)

G  -------------------------------------------------------------------------|
D  -------------------------------------------------------------------------|
A  -------------------------------------------------------------------------|
C#---2-----2--2----2----0--2-----0--5----5----5-----------------------------|

Strum silently at Vocal Solo by Raine

G  -------------------------------------------------------------------------|
D  -------------------------------------------------------------------------|
A  -------------------------------------------------------------------------|
C#---0----------7----------5----------2----------5--------------------------|

Outro

G  -------------------------------------------------------------------------|
D  -------------------------------------------------------------------------|
A  -------------------------------------------------------------------------|
C#---0-----0-----7-----7---7-h9-----5-----5-----2---2---2-----/5-----5------|
Comments