Our Lady Peace - One Man Army Chords & Tabs

 

One Man Army Chords & Tabs

Our Lady Peace Chords & Tabs

Version: 1 Type: Tab 0 ratings
1 star 2 stars 3 stars 4 stars 5 stars
comments

One Man Army Tab

   
#----------------------------------PLEASE NOTE---------------------------------#
#This file is the author's own work and represents their interpretation of the #
#song. You may only use this file for private study, scholarship, or research. #
#------------------------------------------------------------------------------#

Song: One Man Army 
Band: Our Lady Peace
Tabbed by: Steve Fissel
sfissel@islandnet.com or icq #9964990

As soon as I recorded this off the radio, I made it
an mp3 and got to work on tabbing it.
I can't wait for the album to come out, you can bet
I'll have it on september 21st.

This tab just gives the basic concept of the song
maybe I'll do the solo later, but I figure I'll just
submit this for now and work on it when I have a spare
moment.  I'd really apprectiate any input, it doesn't
sound perfect yet, but it's 1:30am right now.  Be careful
with the chords in the chorus, I think they are right
but the voicings need work.

P.S. Any bass players out there want to do the bass tab?
It sounds sweet.

Tuning low to high (Eb Ab Db Gb Bb Eb)
[ Tab from: http://www.guitartabs.cc/tabs/o/our_lady_peace/one_man_army_tab.html ]
Part 1
|-------------------------------------------------------------|
|-------------------------------------------------------------|
|-7-----------------------------------------------------------|
|-7----------7p0---x-x-x----x-----------7p0---x-x-x-----------|
|-5----------------x-x-x----x-----------------x-x-x-----------|
|-5--------------5-x-x-x-5--x-5-5-5~~~------5-x-x-x-5-5~5~5~5~|

Part 2
|-0-0-0--0---0--0--0--0--------------------------|
|-0-0-0--0---0--0--0--0--3-3-3--3---3--3-3--3--3-|
|-2-2-2--2---x--x--x--x--0-0-0--0---2--2-2--2--2-|
|-3-3-3--3---2--2--2--2--0-0-0--0---0--0-0--0--0-|
|-3-3-3--3---2--2--2--2--x-x-x--x---0--0-0--0--0-|
|-1-1-1--1---0--0--0--0--3-3-3--3----------------|

Part 3
|---------------------------|
|---------------------------|
|---------------------------|
|-7p0---x-x-x----x----------|
|-------x-x-x----x----------|
|-----5-x-x-x-5--x-5-5-5~~~-|


Part 4
|----------------------------------|
|----------------------------------|
|----------------------------------|
|----------------------------------|
|-3-5--3-5--3-5--3-5-3-5b(7)-5b(7)-|
|----------------------------------|

Part 5
|-------------------------------------------------------|
|-------------------------------------------------------|
|-----------------------------5-5-5-5-5-----------------|
|-7-7-7-7-7---5-5---5-5-5-5---5-5-5-5-5---4-4---4-4-4-4-|
|-7-7-7-7-7---5-5---5-5-5-5---3-3-3-3-3---4-4---4-4-4-4-|
|-5-5-5-5-5---3-3---3-3-3-3---3-3-3-3-3---2-2---2-2-2-2-|

Part 6
|-------------------------------------------|
|-------------------------------------------|
|-------------------------------------------|
|-------------------------------------------|
|-3-5--3-5--3-5--3-5-3-5b-b5-b5-b5-b5-b5-b5-|
|-------------------------------------------|





End on a D

D [ 5 5 7 7 x x ]
Comments