Our Lady Peace - Not Enough Chords & Tabs

 

Not Enough Chords & Tabs

Our Lady Peace Chords & Tabs

Version: 3 Type: Tab 0 ratings
1 star 2 stars 3 stars 4 stars 5 stars
comments

Not Enough Tab

Our Lady Peace

Not Enough

This is a little more difficult than the others but it sounds awesome!


e--------------------------------------------1------------
B-----------6------------------------1--------------------
G---------------rest---------------------3-------rest-----
D-------7------------------------3------------------------
A---5------------------------1----------------------------
E---------------------------------------------------------

[ Tab from: http://www.guitartabs.cc/tabs/o/our_lady_peace/not_enough_tab_ver_3.html ]
e-----------3-------0-------------------------------------
B---------------1----------------------------3------------
G-------2---------------rest-----------------0---Repeat---
D---3------------------------------------2----------------
A------------------------------------3--------------------
E---------------------------------------------------------



This one isn't completely finished but lady I will put the rest of the song up.  Have fun.

If you have a tip for me, Email me at Mustang_Mann@hotmail.com
Have fun
Thanx
Comments