Our Lady Peace - Not Enough Chords & Tabs

 

Not Enough Chords & Tabs

Our Lady Peace Chords & Tabs

Version: 1 Type: Tab 0 ratings
1 star 2 stars 3 stars 4 stars 5 stars
comments

Not Enough Tab

Artist:     Our Lady Peace
Song:       Not Enough
Album:      Gravity
Tabbed by:  Todd Newton
Presented by: http://ourladypeace.cc
Tuning:     Like all other OLP, 1/2 step down

Send corrects or comments to toddquiksilver16@htomail.com


Intro (repeat as necessary)

Eb----------------------------1------------3-------0-------------------|
Bb-----------6----------1----------------------1---------------3-------|
Gb-------------------------3------------5----------------------2-------|
Db-------7-----------3-------------3-----------------------2-----------|
Ab---5------------1-------------------------------------3--------------|
Eb---------------------------------------------------------------------|


Verse 1

Eb----------------------------1-----------------3----------------------------------|
Bb----------6-----------------1-------------------5------6\--------3--x--3----3\---|
Gb--------7----7-----------------------------5------5----5\--------2--x--2----2\---|
Db------7--------7---------3--------------3----------------------------------------|
Ab---5-----------------1-------------------------------------------3---------------|
Eb---------------------------------------------------------------------------------|

Eb--------------------------------1--1---------------------------------------------|
Bb----------6------------------------1---------6--6-----6----------------3--3------|
Gb--------7----7--------------3----------------3--3-----3----------------2--2------|
Db------7--------7---------3----3-----------3--------------------------------------|
Ab---5-----------------1--------------------------------------------3--------------|
Eb---------------------------------------------------------------------------------|


Chorus (repeat as necessary) 

Eb-----------------------------------------------------------------------|
Bb-----------------------------------------------------------------------|
Gb--2--5--7--7-7-7--7--7-7--7-7-7-7-7-7--3--3-3-3--3--3-3--3-3-3-3-3-3---|
Db--2--5--7--7-7-7--7--7-7--7-7-7-7-7-7--3--3-3-3--3--3-3--3-3-3-3-3-3---|
Ab--0--3--5--5-5-5--5--5-5--5-5-5-5-5-5--1--1-1-1--1--1-1--1-1-1-1-1-1---|
Eb-----------------------------------------------------------------------|

Eb-----------------------------------------------------------------------|
Bb-----------------------------------------------------------------------|
Gb---------------------------------5--5-5-5--5--5-5--5-5-5-5-5-5---------|
Db--3--3-3-3--3--3-3--3-3-3-3-3-3--5--5-5-5--5--5-5--5-5-5-5-5-5---------|
Ab--3--3-3-3--3--3-3--3-3-3 3-3-3--3--3-3-3--3--3-3--3-3-3-3-3-3---------|
Eb--1--1-1-1--1--1-1--1-1-1-1-1-1----------------------------------------|


Pre Verse

Eb-------------------------------------1-------------3-------0----------------------|
Bb----------6--5h6p5-3-----------1-----------------------1--------------3---1-------|
Gb----------------------------------3-------------5---------------------2-----3-----|
Db-------7--------------------3--------------3----------------------2---------------|
Ab---5-------------------1---------------------------------------3------------------|
Eb----------------------------------------------------------------------------------|


Verse 2

Eb--------------------------------1----------------------------------------------|
Bb----------6----------------------------------6--6-----6-6-5-----5\---5\--------|
Gb--------7----7--------------3----------------3--3---------------4\---4\--------|
Db------7------------------3----3-----------3------------------------------------|
Ab---5-----------------1---------------------------------------------------------|
Eb-------------------------------------------------------------------------------|

Eb--------------------------------1--1-------------------------------------------|
Bb----------6------------------------1---------6--6-----6-6\-------------3--3----|
Gb--------7----7--------------3----------------3--3-----3-3\-------------2--2----|
Db------7--------7---------3----3-----------3------------------------------------|
Ab---5-----------------1--------------------------------------------3------------|
Eb-------------------------------------------------------------------------------|

[ Tab from: http://www.guitartabs.cc/tabs/o/our_lady_peace/not_enough_tab.html ]
Chorus (repeat as necessary) 

Eb-----------------------------------------------------------------------|
Bb-----------------------------------------------------------------------|
Gb--2--5--7--7-7-7--7--7-7--7-7-7-7-7-7--3--3-3-3--3--3-3--3-3-3-3-3-3---|
Db--2--5--7--7-7-7--7--7-7--7-7-7-7-7-7--3--3-3-3--3--3-3--3-3-3-3-3-3---|
Ab--0--3--5--5-5-5--5--5-5--5-5-5-5-5-5--1--1-1-1--1--1-1--1-1-1-1-1-1---|
Eb-----------------------------------------------------------------------|

Eb-----------------------------------------------------------------------|
Bb-----------------------------------------------------------------------|
Gb---------------------------------5--5-5-5--5--5-5--5-5-5-5-5-5---------|
Db--3--3-3-3--3--3-3--3-3-3-3-3-3--5--5-5-5--5--5-5--5-5-5-5-5-5---------|
Ab--3--3-3-3--3--3-3--3-3-3 3-3-3--3--3-3-3--3--3-3--3-3-3-3-3-3---------|
Eb--1--1-1-1--1--1-1--1-1-1-1-1-1----------------------------------------|


Bridge (repeat as necessary)

Eb-------|
Bb-------|
Gb--7-7--|
Db--7-7--|
Ab--5-5--|
Eb--5-5--|



Solo 1

Eb----------------------------------------------------------------------------------|
Bb-------------5h6p5--------------5h6p5------------------3---------------5----------|
Gb-2--5--7-------------5---3-------------5---2---------5---5-5--5-5-5-5----5--5-5-5-|
Db---------------------------------------------------3------------------------------|
Ab----------------------------------------------------------------------------------|
Eb----------------------------------------------------------------------------------|

Eb----------------------------------------------------------------------------------|
Bb-------------5h6p5--------------5h6p5--------------------------6-8b-8b-8b---------|
Gb-2--5--7--7----------5---3--------------5---2----------5-7-7-5--------------------|
Db---------------------------------------------------3-3----------------------------|
Ab----------------------------------------------------------------------------------|
Eb----------------------------------------------------------------------------------|

Chorus (repeat as necessary) 

Eb-----------------------------------------------------------------------|
Bb-----------------------------------------------------------------------|
Gb--2--5--7--7-7-7--7--7-7--7-7-7-7-7-7--3--3-3-3--3--3-3--3-3-3-3-3-3---|
Db--2--5--7--7-7-7--7--7-7--7-7-7-7-7-7--3--3-3-3--3--3-3--3-3-3-3-3-3---|
Ab--0--3--5--5-5-5--5--5-5--5-5-5-5-5-5--1--1-1-1--1--1-1--1-1-1-1-1-1---|
Eb-----------------------------------------------------------------------|

Eb-----------------------------------------------------------------------|
Bb-----------------------------------------------------------------------|
Gb---------------------------------5--5-5-5--5--5-5--5-5-5-5-5-5---------|
Db--3--3-3-3--3--3-3--3-3-3-3-3-3--5--5-5-5--5--5-5--5-5-5-5-5-5---------|
Ab--3--3-3-3--3--3-3--3-3-3 3-3-3--3--3-3-3--3--3-3--3-3-3-3-3-3---------|
Eb--1--1-1-1--1--1-1--1-1-1-1-1-1----------------------------------------|


Solo 2

Eb--------------------------------------------|
Bb--5-5h6-5h6-5h6-5h6/8---5h6-5h6-5h6-5h6-1/--|
Gb--------------------------------------------|
Db--------------------------------------------|
Ab--------------------------------------------|
Eb--------------------------------------------|


Eb--------------------------------------------|
Bb--5h6-5h6-5h6-5h6-5h6-6-13-13-15------------|
Gb--------------------------------------------|
Db--------------------------------------------|
Ab--------------------------------------------|
Eb--------------------------------------------|

Eb----------10--------------10-------10-------13-13-13-13-12-12-12-10-10-10-8-10-10-|
Bb--5h6p5---------5h6p5-------------------------------------------------------------|
Gb--------7-----7-7--------7-7----7-7-7---7-7-5-7-----------------------------------|
Db----------------------------------------------------------------------------------|
Ab----------------------------------------------------------------------------------|
Eb----------------------------------------------------------------------------------|

Eb---------------------|
Bb----5h6--------------|
Gb--------2---------7--|
Db----------3b-2-3b----|
Ab--5---------------5--|
Eb---------------------|
Comments