Our Lady Peace - Not Afraid Chords & Tabs

 

Not Afraid Chords & Tabs

Our Lady Peace Chords & Tabs

Version: 2 Type: Tab 0 ratings
1 star 2 stars 3 stars 4 stars 5 stars
comments

Not Afraid Tab

   
Okay, I just listened to the song a few times, and I think I've got the hang of it in 
Special thanks to Labatt Blue for realeasing this amazingly good song! Hope you all enjoy 
This is my first tab that I've submitted here.

Intro/Verse
E---0---3---0-------3-----------0---3--0h1---1-3---1--|
B-1---1-------3-1-3---1-3-----1---1--------3-----1----|
G-----------------------------------------------------|
D-----------------------------------------------------|
A-----------------------------------------------------|
E-----------------------------------------------------|


--(play Intro/Verse)--
Driving down a one way road
Some courage and the radio
We'll drive until our eyes can see
Tonight we'll leave this world behind
No traffic lights and no stop signs
Tonight the road is all we need


          F
We're not afraid
          G
We're not alone
           Am             C
We're just losers on this open road
         F
Can't go back
         G
Can't go home
        Am                     C
'Til we find what we're living for
                     F
If there's something good and
          G
something more
         Am             C
Is there anything worth dying for
F        G
Tonight, you're all that I need

--(Intro/Verse played here)--

--(palm muted strumming)--
This highway's full of burned out cars
Broken dreams and broken hearts
This highway is a wrecking ball
--(play Intro/Verse)--
Tonight's a long long way from home
This headlight shine on broken bones
Tonight we need some milky roads

[ Tab from: http://www.guitartabs.cc/tabs/o/our_lady_peace/not_afraid_tab_ver_2.html ]
          F
We're not afraid
          G
We're not alone
           Am             C
We're just losers on this open road
         F
Can't go back
         G
Can't go home
        Am                     C
'Til we find what we're living for
                     F
If there's something good and
          G
something more
         Am             C
Is there anything worth dying for
F        G
Tonight, you're all that I need

Interlude Pt. 1
E-------------------------------------------------|
B------------------------------1111-0000-00000000-|
G--------------------11111111---------------------|
D--22222222-33333333------------------------------|
A-------------------------------------------------|
E-------------------------------------------------|

E-------------------------------------------------|
B-0111-1333-3555-5555-5/888-8888--10~~~~~~~-------|
G-------------------------------------------------|
D-------------------------------------------------|
A-------------------------------------------------|
E-------------------------------------------------|

--(play Intro/Verse)--

Something good
Something more
Something that's worth dying for
We wanted more
We wanted this
We wanted the simple things like this

--(play Intro/Verse)--

????????? this
This night the stars are falling up
It's like the sky hits the ground
It's like the wind that is calm
It's like an earthquake and it makes no sound
But we're there
And we're almost there


          F
We're not afraid
          G
We're not alone
           Am             C
We're just losers on this open road
         F
Can't go back
         G
Can't go home
        Am                     C
'Til we find what we're living for
                     F
If there's something good and
          G
something more
         Am             C
Is there anything worth dying for
F        G                 Am    C
Tonight, you're all that I need
    F        G                 Am    C
But tonight, you're all that I need
F        G        Am       C
Tonight, tonight, tonight, tonight
F        G       C
Tonight, tonight

Chord index
   F   G   Am   C
E--1---3---0----0--|
B--1---3---1----1--|
G--2---0---2----0--|
D--3---0---2----2--|
A--3---2---0----3--|
E--1---3---0----0--|
Comments