Our Lady Peace - Naveed Chords & Tabs

 

Naveed Chords & Tabs

Our Lady Peace Chords & Tabs

Version: 4 Type: Bass Tab 0 ratings
1 star 2 stars 3 stars 4 stars 5 stars
comments

Naveed Bass Tab

Naveed

~ : let ring
h : hammer on
p : pull off
/ : slide up
\ : slide down

The intro....
Gb|------------------------------------------------------------------|
Db|------------------------------------------------------------------|
Ab|------------------------------------------------------------------|
Eb|--5-5---5--3--3---5-5-5-5---3--3--5-5---5--3--3---5-5-5-5---6--6--| x6

Then the verse riff goes for a bit...
Gb|--------------------------------------------------------------------|
Db|--------------------------------------------------------------------|
Ab|--------------------------------------------------------------------|
Eb|--5-5---5--3--3---5--5-5-5---3--3--5-5---5--3--3---5--5-5-5---3--3--| x4


"I confess..."
Gb|--------------------------------------------------------------------|
Db|--------------------------------------------------------------------|
Ab|--------------------------------------------------------------------|
Eb|--5-5---5--3--3---5--5-5-5---3--3--5-5---5--3--3---5--5-5-5---3--3--|


"Sure is deceiving..."
Gb|------------------------------------------|
Db|------------------------------------------|
Ab|--7-------9------------------9------------|
Eb|-------------10---3-------------10--------|


Then the verse again
Gb|--------------------------------------------------------------------|
Db|--------------------------------------------------------------------|
Ab|--------------------------------------------------------------------|
Eb|--5-5---5--3--3---5--5-5-5---3--3--5-5---5--3--3---5--5-5-5---3--3--|


"To let a young man die, oh...."
Gb|-------------------------------------------------------------------------------|
Db|-------------------------------------------------------------------------------|
Ab|-------------------------------------------------------------------------------|
Eb|--5-5---5--3--3---5-5-5-5---3--3---0-0--0--0--0---3-3-3-3-3--------------------|


"Let him die if he wants to, die if he wants to"
Gb|--------------------------------------------------------------------|
Db|--------------------------------------------------------------------|
Ab|------------------------------------5-5-5-5--5-5-5-5-5--5-----------|
Eb|--5-5--5--5--5--5-5-5-5---------------------------------------------|


Chorus
Gb|-----------------------------------------------------------------|
Db|-----------------------------------------------------------------|
Ab|--7-7-7-7-7-7------10-10-10-10-10-10-10-----3-3-3-3-3-3-3-3-3-3--|  x4
Eb|-----------------------------------------------------------------|


"So I can't go"
Gb|------------------------------|
Db|------------------------------|
Ab|------------------------------|
Eb|--6-6-6-6---5---3--5----------| x2


Then the verse again
Gb|--------------------------------------------------------------------|
Db|--------------------------------------------------------------------|
Ab|--------------------------------------------------------------------|
Eb|--5-5---5--3--3---5--5-5-5---3--3--5-5---5--3--3---5--5-5-5---3--3--|

And it's pretty much the same as the first verse, the note variations come at the same time.

Chorus again....
[ Tab from: http://www.guitartabs.cc/tabs/o/our_lady_peace/naveed_btab_ver_4.html ]
Then the bridge....

"Anymore, anymore..."
Gb|--------------------------------------------------------------------|
Db|--------------------------------------------------------------------|
Ab|------------------3~ ------------------------3~---------------------|
Eb|---\3~ -------------------------3~ ------------------0----2---------|


"There he's on his knees again..."
Gb|------------------------------------------------|
Db|------------------------------------------------|
Ab|-----------------2-3~ ---------3-----5----------|
Eb|---3~ ------------------------------------------|


"Convinced that he might break...."
Gb|----------------------------------------------|
Db|----------------------------------------------|
Ab|----------------2-3~ -------------------------|
Eb|---3~ -------------------------0---2----------|


"Oh, another day is gone...."
Gb|-----------------------------------------------|
Db|-----------------------------------------------|
Ab|-----------------2-3~ -------------------------|
Eb|---3~ -----------------------0----2------------|


"Is gone, is gone, is gone....."
Gb|------------------------------------------|
Db|------------------------------------------|
Ab|---------------2-3~ ----------------------|
Eb|---3~ ------------------------------------|


"Is gone, is gone, is gone...."
Gb|-------------------------------------------------------------------------------------------------------|
Db|-------------------------------------------------------------------------------------------/7-------5--|
Ab|--7-7-7-7-7-7------10-10-10-10-10-10-10-----3-3-3-3-3-3-3-3-3-3------------------5---------------------|
Eb|-------------------------------------------------------------------------------------------------------|

"Is gone, is gone, is gone...."
Gb|-----------------------------------------------------------------------------------------------------|
Db|--------------------------------------------------------------------------------------------5h7-5h7--|
Ab|--7-7-7-7-7-7------10-10-10-10-10-10-10-----3-3-3-3-3-3-3-3-3-3--------------------5-----------------|
Eb|-----------------------------------------------------------------------------------------------------|

After this, the chorus riff repeats itself about 8 times normally, but at the end of the 4th time it goes...
Gb|----------------------------------------------------------------------------------------------------------------------|
Db|---------------------------------------------------------------------------------------------------------------10-10--|
Ab|--7-7-7-7-7-7------10-10-10-10-10-10-10-----3-3-3-3-3-3-3-3-3-3-----------------10-10------------10-------------------|
Eb|----------------------------------------------------------------------------------------------------------------------|

Then repeat the chorus riff another 4 times

"Anymore"
Gb|-----------------------------|
Db|-----------------------------|
Ab|-----------------------------|
Eb|--6-6-6-6---5---3--5---------|  x1

Then the verse riff repeats until the end.

____
This is my first tabbing, but I'm sure it's damn close to 100% accurate.  Any 
threats are welcome at save_me_jebus_@hotmail.com.  Cheers!
Comments