Our Lady Peace - Naveed Chords & Tabs

 

Naveed Chords & Tabs

Our Lady Peace Chords & Tabs

Version: 3 Type: Bass Tab 0 ratings
1 star 2 stars 3 stars 4 stars 5 stars
comments

Naveed Bass Tab

   
-------------------------------------------------------------------------------
			     NAVEED - Our Lady Peace
-------------------------------------------------------------------------------

Tabbed By : Vicki
e-mail:

Tuning:Eb Ab Db Gb

Main riff/intro goes:

Gb|---------------------------------------------------------------------------|
Db|---------------------------------------------------------------------------|
Ab|---------------------------------------------------------------------------|
Eb|-5-5-5-3-3-5-5-5-5-3-3-5-5-5-3-3-5-5-5-5-6-6-------------------------------|

Then at around 1:12/13 (sorry if it sounds a little off, this is as close as i can get it)

Gb|-------------------------------------------------------------------------------------------------------------|
Db|-------------------------------------------------------------------------------------------------------------|
Ab|-------------------------------------------------------------------------------------------------------------|
Eb|-5-5--5-5-5-5-3-3--3-3-3-3--5-5--5-5-5-5-3-3--3-3-3-3--5-5--5-5-5-5-0-0--0-0-0-0--5-5--5-5-5-5-3-3--3-3-3-3--|
[ Tab from: http://www.guitartabs.cc/tabs/o/our_lady_peace/naveed_btab_ver_3.html ]
Chorus: (I can't live here any more)

Gb|---------------------------------------------------------------------------|
Db|---------------------------------------------------------------------------|
Ab|---------------------------------3-3-3-3-3-3-3-3-3-3-3---------------------|
Eb|--0-0-0-0--3-3-3-3-3-3-3-3-3-3-3-------------------------------------------|

(then between the chorus and the next verse play:

Gb|-----------------------------------------------------------------------------------|
Db|-----------------------------------------------------------------------------------|
Ab|-----------------------------------------------------------------------------------|
Eb|-3-0-0--3-0-5----------------------------------------------------------------------|

(Repeat those patterns in order until you get to the bridge thing)

Then for the bridge play the third fret on the Ab string at appropriate points in the 
(which you're clever enough to figure out for yourself. Then play those same notes a lot 
times a lot faster at the "it's gone" bit and at about 4:10, start playing the chorus
line which you play until 5:07 when you play the main riff until the end of the song.

That's as accurate as I can get it. Have fun.
Comments