Our Lady Peace - Naveed Chords & Tabs

 

Naveed Chords & Tabs

Our Lady Peace Chords & Tabs

Version: 1 Type: Bass Tab 0 ratings
1 star 2 stars 3 stars 4 stars 5 stars
comments

Naveed Bass Tab

   
Song: Naveed (Full Album Version)
Album: Naveed (1994)
Group: Our Lady Peace

Tabbed By: Jamie D (poolshark200@hotmail.com)

The old bass tab for this song was fairly accurate, but 
incomplete...here's my take on it. There are still a few 
trills and other bits at the end of some phrases that I 
can't make out, so just wing it. Listen to the 
song for rythym. 

Tune Down 1/2 Step (Eb Ab Db Gb)

Fig. 1

G  -------------------------------------------------
D  -------------------------------------------------
A  -------------------------------------------------
E  5-5--5-3-3-5--5-5-5-3-3--5-5--5-3-3-5--5-5-5-6-6-

Fig. 2

G  -------------------------------------------------
D  -------------------------------------------------
A  -------------------------------------------------
E  5-5--5-3-3-5--5-5-5-3-3--5-5--5-3-3-5--5-5-5-0-0-

Fig. 3

G  ------------------------
D  ------------------------
A  ------------------------
E  5-5--5-3-3-5--5-5-5-3-3-

Fig. 4

G  ------------------------
D  ------------------------
A  --------------------/5--
E  5-5--5-3-3-5--5-5-5-----


Fig. 5

G  -----------------------
D  -----------------------
A  -----------------------
E  0------2-0-3-------3-0-

Fig. 6

G  ---------------------------------------------------
D  ---------------------------------------------------
A  --------------------------------5--5-5-5-5-5-5-5-5-
E  0------3----5-5-5-5-5-5-5-5-5-5--------------------

Fig. 7
[ Tab from: http://www.guitartabs.cc/tabs/o/our_lady_peace/naveed_btab.html ]
G  -------------------------------------
D  -------------------------------------
A  7-7-7-10-10-10-10-10-3--3-3-3-3-3-3-3
E  -------------------------------------

Fig. 8

G  -----------------------------
D  -----------------------------
A  -----------------------------
E  6-6-6-5-0-5-----6-6-6-5-0-5--

Fig. 9

G  ---------------------------
D  ---------------------------
A  -3\--------3--------------3
E  ---3--------------3--------

Fig. 10

G  ------------------------------------------------------------------
D  ------------------------------------------------------------------
A  5-------------3-----3-3-5-------2-3------5------------3------5----
E  ---2-3------5-------------3-----------------2-3-----5----------2-3

   
   -------------------------------------
   -------------------------------------
   ----------------------3--3-3--3--3-3/
   -3--3-3--3--3-3--3--5----------------

Fig. 11

G  -----------------------------------------
D  -----------------------------------------
A  7-7-7-10-10-10-10-10-3--3-3-3-3-/12-12-10
E  -----------------------------------------

Fig. 12

G  --------------------------------------------------
D  --------------------------------------------------
A  7-7-7-10-10-10-10-10-3--3-3-3-3-/12-12-14-14-12\10
E  --------------------------------------------------


Intro:
Fig 1 x5
Fig 2 x1
Fig 3 x7
Fig 4 x1

Verse 1:
Fig 3 x8
Fig 5 x1 
Fig 3 x3
Fig 6 x1

Chorus:
Fig 7 x3
Fig 8 x1

Interlude:
Fig 3 x3
Fig 4 x1

Verse 2:
Fig 3 x8
Fig 5 x1 
Fig 3 x3
Fig 6 x1

Chorus:
Fig 7 x4

Bridge:
Fig 9 x1
Fig 10 x1
Fig 11 x2

Chorus
Fig 7 x3
Fig 12 x1
Fig 7 x4
Fig 8 x1

Outtro:
Fig 3 al fin

Comments