Our Lady Peace - Middle Of Yesterday Chords & Tabs

 

Middle Of Yesterday Chords & Tabs

Our Lady Peace Chords & Tabs

Version: 1 Type: Tab 0 ratings
1 star 2 stars 3 stars 4 stars 5 stars
comments

Middle Of Yesterday Tab

   
Middle Of Yesterday
____________________


Tabbed by: Jason (OLPKID) :)

OLP TUNNING : Eb Ab Db Gb Bb Eb

***Done in order of how song goes****
(follow the timing of the song.... )

         X2       overtop main part
eb-|--------------|-------|
bb-|--------------|-------|
gb-|--------------|---4---|
db-|-9--12--7--5--|---4---|
ab-|-9--12--7--5--|---2---|
eb-|-7--10--5--3--|-------|


            4X                          4X
Eb-|---------------------------|-----14---------15-14---|
Bb-|---------------------------|--12----12---12---------|
Gb-|-16~~--19~~--18~~--16~-----|------------------------|
Db-|---------------------------|------------------------|
Ab-|---------------------------|------------------------|
Eb-|---------------------------|------------------------|


Eb-|--------------|
Bb-|--------------|
Gb-|--------------| X2
Db-|-4-5-4-4-4-7--|
Ab-|-4-5-4-4-4-7--|
Eb-|-2-3-2-2-2-5--|

      Chrous
Eb-|--------------|
Bb-|--------------|
Gb-|-(8)---(6)-1--|
Db-|--9--4--7--2--|  X2
Ab-|--9--4--7--2--|
Eb-|--7--2--5--0--|

         X2       overtop main part
eb-|--------------|-------|
bb-|--------------|-------|
gb-|--------------|---4---|
db-|-9--12--7--5--|---4---|
ab-|-9--12--7--5--|---2---|
eb-|-7--10--5--3--|-------|

[ Tab from: http://www.guitartabs.cc/tabs/o/our_lady_peace/middle_of_yesterday_tab.html ]
            4X                          4X
Eb-|---------------------------|-----14---------15-14---|
Bb-|---------------------------|--12----12---12---------|
Gb-|-16~~--19~~--18~~--16~-----|------------------------|
Db-|---------------------------|------------------------|
Ab-|---------------------------|------------------------|
Eb-|---------------------------|------------------------|


Eb-|--------------|
Bb-|--------------|
Gb-|--------------| X2
Db-|-4-5-4-4-4-7--|
Ab-|-4-5-4-4-4-7--|
Eb-|-2-3-2-2-2-5--|

     Chorus X2               over top chorus  X1
Eb-|--------------|-19--17~~-14~-17~-12--16-17-16-17-12--|
Bb-|--------------|--------------------------------------|
Gb-|-(8)---(6)----|--------------------------------------|
Db-|--9--4--7--2--|--------------------------------------|
Ab-|--9--4--7--2--|--------------------------------------|
Eb-|--7--2--5--0--|--------------------------------------|


interlude (rythem not shown)
        X3                 X1
eb-|---------------------|-----|
bb-|---------------------|-----|
gb-|---------------------|-----|
db-|--7~~--6~~--5~~--4~~-|--5--|
ab-|---------------------|--5--|
eb-|---------------------|--3--|

     Chorus X4               over top chorus  X4
Eb-|--------------|-19--17~~-14~-17~-12--16-17-16-17-12--|
Bb-|--------------|--------------------------------------|
Gb-|-(8)---(6)----|--------------------------------------|
Db-|--9--4--7--2--|--------------------------------------|
Ab-|--9--4--7--2--|--------------------------------------|
Eb-|--7--2--5--0--|--------------------------------------|

      X2            through 2X round
Eb-|--------------|---------------------|
Bb-|--------------|---------------------|
Gb-|-(8)---(6)----|----16~~~~~~---------|
Db-|--9--4--7--2--|---------------------|
Ab-|--9--4--7--2--|---------------------|
Eb-|--7--2--5--0--|---------------------|


    end on
eb-|-----|
bb-|-----|
gb-|--8--|
db-|--9--|
ab-|--9--|
eb-|--7--|

thus is all
:)
Comments