Our Lady Peace - Made Of Steel Chords & Tabs

 

Made Of Steel Chords & Tabs

Our Lady Peace Chords & Tabs

Version: 1 Type: Tab 0 ratings
1 star 2 stars 3 stars 4 stars 5 stars
comments

Made Of Steel Tab

this is only 2nd guitar part only... no 1st guitar part

[intro x2]
e|----------------------------------------------------------------
b|----------------------------------------------------------------
g|---------------------7-7-7-------------------5-5-5--------------
d|---------5-5-5-------7-7-7-------7-7-7-------5-5-5--------------
a|---------5-5-5-------5-5-5-------7-7-7-------3-3-3--------------
E|---------3-3-3-------------------5-5-5--------------------------

e|----------------------------------------------------------------
b|----------------------------------------------------------------
g|---------------------7-7-7-------------------5------------------
d|---------5-5-5-------7-7-7-------7-7-7-------5------------------
a|---------5-5-5-------5-5-5-------7-7-7-------3------------------
E|---------3-3-3-------------------5-5-5--------------------------


[verse] first 3 X
"i can be anything..."
e|----------------------------------------------------------------
b|----------------------------------------------------------------
g|---------------------7-7-7-------------------5-5-5--------------
d|---------5-5-5-------7-7-7-------7-7-7-------5-5-5--------------
a|---------5-5-5-------5-5-5-------7-7-7-------3-3-3--------------
E|---------3-3-3-------------------5-5-5--------------------------

fourth time
"its not your fault..."
e|----------------------------------------------------------------
b|----------------------------------------------------------------
g|---------------------7-7-7-------------------7-7-7--------------
d|---------5-5-5-------7-7-7-------7-7-7-------7-7-7--------------
a|---------5-5-5-------5-5-5-------7-7-7-------5-5-5--------------
E|---------3-3-3-------------------5-5-5--------------------------

[chorus]
"hold your head high..."
e|----------------------------------------------------------------
b|----------------------------------------------------------------
g|---------------------7-7-7-------------------5-5-5--------------
d|---------5-5-5-------7-7-7-------7-7-7-------5-5-5--------------x3
a|---------5-5-5-------5-5-5-------7-7-7-------3-3-3--------------
E|---------3-3-3-------------------5-5-5--------------------------

  "but i'm not made of steeeel..."
e|------------------------x---------------------------------------
b|------------------------0---0-----0-----0-----------------------
g|------------------------0------0------0-------------------------
d|-------5-------4--------2---------------------------------------x2
a|-------5-------4--------2---------------------------------------
E|-------3-------2--------0---------------------------------------


e|----------------------------------------------------------------
b|----------------------------------------------------------------
g|---------------------7-7-7-------------------5-5-5--------------
d|---------5-5-5-------7-7-7-------7-7-7-------5-5-5--------------
a|---------5-5-5-------5-5-5-------7-7-7-------3-3-3--------------
E|---------3-3-3-------------------5-5-5--------------------------
[ Tab from: http://www.guitartabs.cc/tabs/o/our_lady_peace/made_of_steel_tab.html ]
[verse] first 3 X
"i can be anything..."
e|----------------------------------------------------------------
b|----------------------------------------------------------------
g|---------------------7-7-7-------------------5-5-5--------------
d|---------5-5-5-------7-7-7-------7-7-7-------5-5-5--------------
a|---------5-5-5-------5-5-5-------7-7-7-------3-3-3--------------
E|---------3-3-3-------------------5-5-5--------------------------

fourth time
"we climbed up here..."
e|----------------------------------------------------------------
b|----------------------------------------------------------------
g|---------------------7-7-7-------------------7-7-7--------------
d|---------5-5-5-------7-7-7-------7-7-7-------7-7-7--------------
a|---------5-5-5-------5-5-5-------7-7-7-------5-5-5--------------
E|---------3-3-3-------------------5-5-5--------------------------

[chorus]

[bridge]
"they knock you down..."
e|----------------------------------------------------------------
b|----------------------------------------------------------------
g|---------------------7-7-7-------------------7-7-7--------------
d|---------5-5-5-------7-7-7-------7-7-7-------7-7-7--------------
a|---------5-5-5-------5-5-5-------7-7-7-------5-5-5--------------
E|---------3-3-3-------------------5-5-5--------------------------
           pm...       pm...       pm...       pm...

e|----------------------------------------------------------------
b|----------------------------------------------------------------
g|---------------------7-7-7-------------------7-7-7--------------
d|---------5-5-5-------7-7-7-------7-7-7-------7-7-7--------------x2
a|---------5-5-5-------5-5-5-------7-7-7-------5-5-5--------------
E|---------3-3-3-------------------5-5-5--------------------------

  "but i'm not made of steel..."
e|------------------------x---------------------------------------
b|------------------------0---0-----0-----0-----------------------
g|------------------------0------0------0-------------------------
d|-------5-------4--------2---------------------------------------x3
a|-------5-------4--------2---------------------------------------
E|-------3-------2--------0---------------------------------------

 "but your secrets safe..."
e|----------------------------------------------------------------
b|----------------------------------------------------------------
g|------------------------------------7-7-7-------------5-5-5-----
d|------5-------4--------5-5-5--------7-7-7---7-7-7-----5-5-5-----
a|------5-------4--------5-5-5--------5-5-5---7-7-7-----3-3-3-----
E|------3-------2--------3-3-3----------------5-5-5---------------

"yeah... your secrets..."
e|----------------------------------------------------------------
b|----------------------------------------------------------------
g|---------------------7-7-7-------------------7-7-7--------------
d|---------5-5-5-------7-7-7-------7-7-7-------7-7-7--------------
a|---------5-5-5-------5-5-5-------7-7-7-------5-5-5--------------
E|---------3-3-3-------------------5-5-5--------------------------

[chorus]

[outro after chorus "you wanted a hero tonight..."
e|----------------------------------------------------------------
b|----------------------------------------------------------------
g|----------------------------------------------------------------
d|------7--------------5------------3-----------------------------
a|------7--------------5------------3-----------------------------
E|------5--------------3------------1-----------------------------
                                        let ring..........
Comments