Our Lady Peace - Life Chords & Tabs

 

Life Chords & Tabs

Our Lady Peace Chords & Tabs

Version: 2 Type: Tab 1 rating
1 star 2 stars 3 stars 4 stars 5 stars
comments

Life Tab

   
Song: Life
Band: Our Lady Peace
Album: Spiritual Machines
Tabbed by: David Rojas

Low    High
D G C F A D

Intro: 2x
Guitar 1
D-------------------------------------|
A-------------------------------------|
F----2---2----------------------------|
C--0---------4---2------------------2-|
G------4---2---0-----5----5----5--0---|
D------------------3----2----3--------|

Guitar 2:

D-9-11-9-8-11-8----11------11-----------------------------------------------------|
A---------------11----11-9----9-9----11-9-9----11-9-9----11-9-9----11-9-9----11-9-|
F---------------------------------------------------------------------------------|
C---------------------------------11--------11--------11--------11--------11------|
G---------------------------------------------------------------------------------|
D---------------------------------------------------------------------------------|
[ Tab from: http://www.guitartabs.cc/tabs/o/our_lady_peace/life_tab_ver_2.html ]
The Verse is the same as the intro except Guitar 2 is distorted lighty,
and Guitar 1 goes like this:

D-----------------------------------------------------------|
A-----------------------------------------------------------|
F----2---2----------------------------------222-2-2-222-2-2-|
C--0---------4---2--------------------------000-0-0-000-0-0-|
G------4---2---0---5-5-5-5-5-5-5-5-5-5-5-5------------------|
D------------------3-3-3-3-2-2-2-2-3-3-3-3------------------|


bridge: 2x
D---------------------------|
A-6--6--6-7-9-1-2-4-4-6-7-6-|
F---------------------------|
C---------------------------|
G---------------------------|
D---------------------------|

Verse 2:
D---------------------------|
A---------------------------|
F-2222----------------------|
C-0000-666-xx-444-6666-xx---|
G------444-xx-222-4444-xx-6-|
D-------------------------4-|

That's all the parts that I can get for now. Piece it together yourself.
Any comments or corrections, contect me at kahunaka@hotmail.com.
Comments