Our Lady Peace - Life Chords & Tabs

 

Life Chords & Tabs

Our Lady Peace Chords & Tabs

Version: 1 Type: Tab 0 ratings
1 star 2 stars 3 stars 4 stars 5 stars
comments

Life Tab

   
Song: Life
Group: Our Lady Peace
Album: Spiritual Machines
Tabbed By:David Rojas

        Low          High
Tuning: D# G# C# F# A# D#

Key 
/:slide up
\:slide down
x:don't play
*:scratch (lift fingers off the fret but not the strings and strum)
^:Bend up
R:Release bend
~:Verbrato
[ Tab from: http://www.guitartabs.cc/tabs/o/our_lady_peace/life_tab.html ]
Intro/Verse:
Gtr.#1
D#:----------------------------------
A#:----------------------------------
F#:---2--2---------------------------
C#:-0--------4---2-------------------
G#:----4---2---0-----5---5---5-----7-
D#:----------------3---2---3---3/5---
Gtr.#2 Intro:                                       _
D#:------12----------12----------12----------12----- |
A#:-15------15--14------14--12------12-------------- |
F#:----14----------14----------14-------14------14-- |
C#:----------------------------------------12------- |
G#:------------------------------------------------- |
D#:------------------------------------------------- |
                                                      - 
D#:------------------------------------------------- |
A#:------12-10-------12-10-------10-12-10----12-10-- |
F#:-12----------11----------12---------------------- |
C#:----12----------12----------12---------14-------- |
G#:------------------------------------------------- |
D#:-------------------------------------------------_|
                                                    
Chorus:
Gtr.#1 strums this
D#:--------------------------------
A#:--------------------------------
F#:-2--2---------------------------
C#:-0------4---2-------------------
G#:----4---2---0---5---5---5---5-7-
D#:----------------3---2---3---3/5-

Gtr.#2
D#:-------0-----0-------0---------0--3--2--3--0--
A#:-----3---------3-------3-----3----3--3--3--2--
F#:---2-------2-------2-------2------0--2--0--2--
C#:-0--------------------------------0--0--0--2--
G#:---------4-------2-------0--------2--x--2--0--
D#:----------------------------------3--2--3--x--
                                       \ strum /

Bridge:
Gtr.#1 plays D5-A5 lightly
Gtr.#2 plays
F#:-11--11--11-12-14--------------11-12-11--
C#:------------------11-12-14--14----------- x2
G#:-----------------------------------------
    (do  do  do do do do do do  do do do do)


Interlude:
Gtr.#1 
C#:------------------------------------------------------22222222--
G#:-5555555--5555**--22222222--5555**--55555555--5555**--00000000--
D#:-3333333--2222**--00000000--2222**--33333333--2222**------------

Gtr.#2 Strumming
D#:-3--2--0--2--3--2--0--
A#:-3--3--2--3--3--3--2--
F#:-0--2--2--2--0--2--2--
C#:-0--0--2--0--0--0--2--
G#:-2--x--0--x--2--x--0--
D#:-3--2--x--2--3--2--x--

Solo:
Gtr.#1 plays -D5-A5- cords

Gtr.#2
D#:-----------3-5------------------------
A#:-7--7--7-7-----2-3-5--5-7-7^8-R-7p5-- X2
F#:--------------------------------------

D#:-----------3-5^7R-5-5-5----------
A#:-7--7--7-7-------------5-5-5-5--- X2
F#:---------------------------------

D#:-12~12~12~12~12\--
A#:------------------
F#:------------------

That's all There is. I think. If anythings missing e-mail me at kahunaka@hotmail.com.

Comments