Our Lady Peace - Life Chords & Tabs

 

Life Chords & Tabs

Our Lady Peace Chords & Tabs

Version: 1 Type: Bass Tab 0 ratings
1 star 2 stars 3 stars 4 stars 5 stars
comments

Life Bass Tab

   
Our Lady Peace - Life

Tabbed by Rob Brezina   rob_2222@hotmail.com

Rif 1
G|-6-------5-------3-----------------------------------------------|
D|-------------------------6-------4-4-4-4-3-3-3-3-4-4-4-4-6-6-6-6-|
A|-----------------------------------------------------------------|
E|-----------------------------------------------------------------|

Rif 2
G|-----------------------------------------------------------------
D|-----------------------------------------------------------------
A|-4/16-16-16-15-15-15-13-13-13-13---------------------------------
E|---------------------------------16-16-16-16-14-14-14-14-13-13-13

----------------------------|
----------------------------|
----------------------------|
-13-14-14-14-14-16-16-16-16-|

Rif 3   Do Do Part
G|------------|
D|-3/16-16-15-|
A|------------|
E|------------|

Rif 4
G|--------------------------------------------
D|--------------------------------------------
A|--------------------------------------------
E|-16-16-16-16-14-14-14---13-13-13-13-14-14-14

---------------------------------------------|
---------------------------------------------|
---------------------------------------------|
---16-16-16-16---15-15-15----3/1316-1316-1316|
[ Tab from: http://www.guitartabs.cc/tabs/o/our_lady_peace/life_btab.html ]
Rif 5        Solo
G|-6--6--6--6-----------------|
D|--------------------4-4-3-3-|
A|----------------------------|
E|----------------------------|

Rif 6
G|-----------3-6-5---------------|
D|-----3-4-6-------------4-4-3-3-|
A|-4-6---------------------------|
E|-------------------------------|

Rif 7
G|-6-----6----------8-8-8-8-8-8-|
D|------------6---6-------------|
A|-----4-----4------------------|
E|------------------------------|

Rif 8
G|---------------------------------------------------------------
D|---------------------------------------------------------------
A|---------------------------------------------------------------
E|-16-16-16-16-14-14-14-14-13-13-13-13-14-14-14-14-16-16-16-16-16

-----------------------------|
-----------------------------|
-----------------------------|
-15-15-15----3/1316-1316-1316|



Rif 9
G|----------------------------------------------------|
D|----------------------------------------------------|
A|----------------------------------------------------|
E|-14-14-14-14-13-13-13-13-14-14-14-14-14-16-16-16-16-|

Rif 1 x 2
Rif 2 x 2
Rif 3 x 1
Rif 1 x 2
Rif 2 x 2
Rif 4 x 1
Rif 5 x 2
Rif 6 x 1
Rif 7 x 1
Rif 8 x 1
Rif 2 x 4
Rif 9 x 4

That's the basic thing. 
Comments