Our Lady Peace - Julia Chords & Tabs

 

Julia Chords & Tabs

Our Lady Peace Chords & Tabs

Version: 1 Type: Tab 0 ratings
1 star 2 stars 3 stars 4 stars 5 stars
comments

Julia Tab

   
#----------------------------------PLEASE NOTE---------------------------------#
#This file is the author's own work and represents their interpretation of the #
#song. You may only use this file for private study, scholarship, or research. #
#------------------------------------------------------------------------------##
From: sports2@genie.geis.com
Date: Thu, 13 Jul 95 18:05:00 UTC

"Julia" - Our Lady Peace
>From the album NAVEED
 
=========
Intro x 2
=========
 
e------------------------------------------------------------------------
B--------------------------------11-------------------------9---11---8~--
G------8h9-----9--9-----8h9----9-----------8h9-----9--9------------------
D---10-----10---10---10----10------10---10-----10---10---10--------------
A------------------------------------------------------------------------
E------------------------------------------------------------------------
 
====
Solo
====
 
e----------------------------------------------
B----------------------------------------------
G---6--5-3-5--3-5--3-5--3-5--------------------   x  2
D-------------------------------6--------6-----
A----------------------------5b---3b--5b---3b--
E----------------------------------------------

[ Tab from: http://www.guitartabs.cc/tabs/o/our_lady_peace/julia_tab.html ]
======
Chords
======
C  - x35553
D# - x68886
Bb - x13331
F  - 133211
A# - 688766
G# - 466544
 
Duncan
sports2@genie.com  - Corrections (and thankyou's) welcome!


*********************************************************************************************************************************************************************************************************

SONG: LIFE
ARTIST: OUR LADY PEACE
                          
INTRO PLAY 2X
E------------------------------------------------------------------------------------------------------------------------||-
B------------------------------------------------------------------------------------------------------------------------||-
G------------------------------------------------------------------------------------------------------------------------||-
D------------7------7----4----2----------------------------2-------------------------------------------------------------||-
A--------5------4-----2----0---------5------5-----5---0------------------------------------------------------------------||-
E-----------------------------------3------2------3----------------------------------------------------------------------||-


I DON'T KNOW FOR SURE BUT FOR THE REST OF THE SONG I THINK YOU JUST STUM THE SAME TAB USED FOR THE INTRO. IF YOU HAVE ANY QUESTIONS SEND ME AN E-MAIL AT TIMDOWNARD@HOTMAIL.COM AND I'LL GET BACK TO YOU.
Comments