Our Lady Peace - Innocent Chords & Tabs

 

Innocent Chords & Tabs

Our Lady Peace Chords & Tabs

Version: 1 Type: Tab 0 ratings
1 star 2 stars 3 stars 4 stars 5 stars
comments

Innocent Tab

Our Lady Peace  -  Innocent
tabbed by treehouse2003@yahoo.com



Here is the first verse.  Strumming pattern isn't perfect so listen to the song to get it.
Remember to slide from chord to chord.  You might have to maximize window to get this text to line up.  This is my first tab submitted.

Verse x2
[ Tab from: http://www.guitartabs.cc/tabs/o/our_lady_peace/innocent_tab.html ]
E------------------------------------------------------------------------------------------   
B------------------------------------------------------------------------------------------
G-------6----6----6----8----13----13----13----15----11----11----11----15----15----13----13--
D-------6----6----6----8----13----13----13----15----11----11----11----15----15----13----13--
A-------4----4----4----6----11----11----11----13-----9------9-----9---13----13----11----11-
E-------4----4----4----6----11----11----11----13-----9------9-----9---13----13----11----11-

Bridge/Pre Chorus 

E-----------------------------------------------------------------------------------
B------------------------------------------------------------------------------------
G-------11----11----11----13----13----13----11----11----11----15----15----13----13--
D-------11----11----11----13----13----13----11----11----11----15----15----13----13--
A--------9-----9-----9---11-----11----11-----9-----9-----9----13----13----11----11-
E--------9-----9-----9---11-----11----11-----9-----9-----9----13----13----11----11-

Chorus

E------
B------
G----6
D----6
A----4
E----4

Couldnt get the rest, email me at treehouse2003@yahoo.com if you can
thanks
Comments