Our Lady Peace - In Repair Chords & Tabs

 

In Repair Chords & Tabs

Our Lady Peace Chords & Tabs

Version: 1 Type: Tab 0 ratings
1 star 2 stars 3 stars 4 stars 5 stars
comments

In Repair Tab

   
In Repair
__________

Tabbed by: Jason (OLPKID) :)


in TUNNING: E A D G B E

STANDERD TUNNING... :)

****TAB DONE IN ORDER OF HOW SONG GOES*****


e-|-----------|-----|
b-|-----------|-----|
g-|-----------|-/7--|
d-|--7--5--9--|-/7--| X2
a-|--7--5--9--|-/5--|
e-|--5--3--7--|-----|

     x3        4th time
e-|-----3-33--|--------|
b-|-----3-33--|--------|
g-|-4/5-5-55--|-3/4-7--| X2
d-|-4/5-------|-3/4-7--|
a-|-2/3-------|-2/3-5--|
e-|-----------|--------|

Chorus  1st    ."you.." (the 355 places ackward time)
e-|------------|------|
b-|------------|------|
g-|-------7--2-|--5---|
d-|-2--5--7--2-|--5---| X1
a-|-2--5--5--0-|--3---|
e-|-0--3-------|------|

  2nd time(round) "..always in repair.."
e-|--------------|------------|
b-|--------------|------------|
g-|--------7--2--|-----5------|
d-|--2--5--7--2--|-----5------|
a-|--2--5--5--0--|-----3------| X1
e-|--0--3--------|------------|


e-|-----------|------|
b-|-----------|------|
g-|-----------|-/7---|
d-|--7--5--9--|-/7---| X3
a-|--7--5--9--|-/5---|
e-|--5--3--7--|------|

     x3        4th time
e-|-----3-33--|--------|
b-|-----3-33--|--------|
g-|-4/5-5-55--|-3/4-7--| X2
d-|-4/5-------|-3/4-7--|
a-|-2/3-------|-2/3-5--|
e-|-----------|--------|
[ Tab from: http://www.guitartabs.cc/tabs/o/our_lady_peace/in_repair_tab.html ]
Chorus  1st    ."you.."
e-|------------|------|
b-|------------|------|
g-|-------7--2-|--5---|
d-|-2--5--7--2-|--5---| X1
a-|-2--5--5--0-|--3---|
e-|-0--3-------|------|

  2nd time(round) "..always in repair.."
e-|--------------|------------|
b-|--------------|------------|
g-|--------7--2--|-----5------|
d-|--2--5--7--2--|-----5------|
a-|--2--5--5--0--|-----3------| X1
e-|--0--3--------|------------|

e-|-----|
b-|-----|
g-|--5--|
d-|--5--| "take this time to figure it out...." etc
a-|--3--|
e-|-----|

e-|----------------|
b-|----------------|
g-|-------7--2--5--|
d-|-2--5--7--2--5--| X2
a-|-2--5--5--0--3--|
e-|-0--3-----------|

Chorus  1st    ."you.."
e-|------------|------|
b-|------------|------|
g-|-------7--2-|--5---|
d-|-2--5--7--2-|--5---| X1
a-|-2--5--5--0-|--3---|
e-|-0--3-------|------|

  2nd time(round) "..always in repair.."
e-|--------------|------------|
b-|--------------|------------|
g-|--------7--2--|-----5------|
d-|--2--5--7--2--|-----5------|
a-|--2--5--5--0--|-----3------| X1
e-|--0--3--------|------------|

Chorus  1st    ."you.."
e-|------------|------|
b-|------------|------|
g-|-------7--2-|--5---|
d-|-2--5--7--2-|--5---| X1
a-|-2--5--5--0-|--3---|
e-|-0--3-------|------|

  2nd time(round) "..always in repair.."
e-|--------------|------------|
b-|--------------|------------|
g-|--------7--2--|-----5------|
d-|--2--5--7--2--|-----5------|
a-|--2--5--5--0--|-----3------| X1
e-|--0--3--------|------------|

   end on
e-|-----|
b-|-----|
g-|--5--|
d-|--5--|
a-|--3--|
e-|-----|


thus is all
:)
Comments