Our Lady Peace - Do You Like It Chords & Tabs

 

Do You Like It Chords & Tabs

Our Lady Peace Chords & Tabs

Version: 7 Type: Tab 0 ratings
1 star 2 stars 3 stars 4 stars 5 stars
comments

Do You Like It Tab

   
Song: Do You Like It
Artist: Our Lady Peace
Album: Gravity
Tabber: Birdman_epic
Tunning: Drop down half a step (Eb Ab Db Gb Bb Eb)

This is only my second tab but I know it's close. If not 100% it's up there, but I guess it's up to you.
Hope you enjoy playing it as much as I do.

Intro
G-1
1|---------------------------------|
2|---------------------------------|
3|-----4-------4-------4-------4---| 
4|---2---2---4---4---4---4---2---2-|
5|-0-------2-----------------------|
6|-----------------2-------0-------|

Verse 
G-1
1|---------------------------------|
2|---------------------------------|
3|-----4-------4-------4-------4---| 2X
4|---2---2---4---4---4---4---2---2-|
5|-0-------2-----------------------|
6|-----------------2-------0-------|

G-1
1|-------------------------0-|
2|-------------------------0-|
3|-----4-------4-------4---4-| 
4|---2---2---4---4---4---4-2-|
5|-0-------2-----------------|
6|-----------------2---------|

G-2
1|-------------|
2|-------------|
3|-2--4--------|
4|-2--4--4--2--|
5|-0--2--4--2--|
6|-------2--0--|

G-1
1|---------------------------------|
2|---------------------------------|
3|-----4-------4-------4-------4---| 2X
4|---2---2---4---4---4---4---2---2-|
5|-0-------2-----------------------|
6|-----------------2-------0-------|

Pre-Chorus
G-1
1|---------------------------------------------------------------------|
2|---------------------------------------------------------------------|
3|-9-9-9-9--11-11-11-11--6-6-6-6--9-9-9-9--9-9-9-9-------------9-9-9-9-|
4|-7-7-7-7---9--9--9--9--4-4-4-4--9-9-9-9--7-7-7-7----9---9-9--9-9-9-9-|
5|--------------------------------------------------9---9------7-7-7-7-|
6|---------------------------------------------------------------------|

G-2
1|------------------------------------------------------------------------|
2|------------------------------------------------------------------------|
3|-2-2-2-2--4-4-4-4--------------------2-2-2-2--4-4-4-4-------------------|
4|-2-2-2-2--4-4-4-4--4-4-4-4--2-2-2-2--2-2-2-2--4-4-4-4--4-4-4-4--2-2-2-2-|
5|-0-0-0-0--2-2-2-2--4-4-4-4--2-2-2-2--0-0-0-0--2-2-2-2--4-4-4-4--2-2-2-2-|
6|-------------------2-2-2-2--0-0-0-0--------------------2-2-2-2--0-0-0-0-|

Chorus
G-1
1|-----0-------0-------0-------0----|
2|----------------------------------|
3|---2---2---2---2---2---2---2---2--| 2x
4|-0---------------4-------2--------|
5|---------0------------------------|
6|----------------------------------|

G-2
1|------------------------------------|
2|------------------------------------|
3|-7-7-7-7----------------------------| 2x
4|-7-7-7-7--7-7-7-7--4-4-4-4--2-2-2-2-|
5|-5-5-5-5--7-7-7-7--4-4-4-4--2-2-2-2-|
6|----------5-5-5-5--2-2-2-2--0-0-0-0-|

G-1
1|-5-5-5-5-5-5-5-5---------------------------5-5-5-0-0-5-5-0-5-4-0-2-0-|
2|-5-5-5-5-5-5-5-5-----------------------------------------------------|
3|-2-2-2-2-2-2-2-2-----------------------------------------------------|
4|---------------------------------------------------------------------|
5|---------------------------------------------------------------------|
6|---------------------------------------------------------------------|

G-2
1|---------------------------------------------------------------------|
2|---------------------------------------------------------------------|
3|-7------------------------------------------7--7--7--7---------------| 
4|-7---------------7-7-7-7--4-4-4-4--2-2-2-2--7--7--7--7---2--4--4--7--|
5|-5---------------7-7-7-7--4-4-4-4--2-2-2-2--5--5--5--5---2--4--4--7--|
6|-----------------5-5-5-5--2-2-2-2--0-0-0-0---------------0--2--2--5--|

Interlude
G-1
1|--------------------------------------------------|
2|--------------------------------------------------|
3|--------4-----------4-----------4-----------4-----| 
4|-----2-----2-----4-----4-----4-----4-----2-----2--|
5|--0-----------2-----------------------------------|
6|--------------------------2-----------0-----------|

G-2
1|-------------------------------------------------0h2p0h2-|
2|---------0-------------0-----------0---------------------|
3|---2---2---2--2--2---2---2--2----2---2--2--2---2---------|
4|-----4-------------4-----------4-------------4-----------|
5|---------------------------------------------------------|
6|---------------------------------------------------------|
  pm|----------------------------------------------|

Verse 2
G-1
1|--------------------------------------------------|
2|--------------------------------------------------|
3|--------4-----------4-----------4-----------4-----| 2x
4|-----2-----2-----4-----4-----4-----4-----2-----2--|
5|--0-----------2-----------------------------------|
6|--------------------------2-----------0-----------|
[ Tab from: http://www.guitartabs.cc/tabs/o/our_lady_peace/do_you_like_it_tab_ver_7.html ]
G-2
1|-------------------------------------------------0h2p0h2-|
2|---------0-------------0-----------0---------------------|
3|---2---2---2--2--2---2---2--2----2---2--2--2---2---------| 2x
4|-----4-------------4-----------4-------------4-----------|
5|---------------------------------------------------------|
6|---------------------------------------------------------|
  pm|----------------------------------------------|

Pre-Chorus
G-1
1|---------------------------------------------------------------------|
2|---------------------------------------------------------------------|
3|-9-9-9-9--11-11-11-11--6-6-6-6--9-9-9-9--9-9-9-9-------------9-9-9-9-|
4|-7-7-7-7---9--9--9--9--4-4-4-4--9-9-9-9--7-7-7-7----9---9-9--9-9-9-9-|
5|--------------------------------------------------9---9------7-7-7-7-|
6|---------------------------------------------------------------------|

G-2
1|------------------------------------------------------------------------|
2|------------------------------------------------------------------------|
3|-2-2-2-2--4-4-4-4--------------------2-2-2-2--4-4-4-4-------------------|
4|-2-2-2-2--4-4-4-4--4-4-4-4--2-2-2-2--2-2-2-2--4-4-4-4--4-4-4-4--2-2-2-2-|
5|-0-0-0-0--2-2-2-2--4-4-4-4--2-2-2-2--0-0-0-0--2-2-2-2--4-4-4-4--2-2-2-2-|
6|-------------------2-2-2-2--0-0-0-0--------------------2-2-2-2--0-0-0-0-|

Chorus
G-1
1|-----0-------0-------0-------0----|
2|----------------------------------|
3|---2---2---2---2---2---2---2---2--| 2x
4|-0---------------4-------2--------|
5|---------0------------------------|
6|----------------------------------|

G-2
1|------------------------------------|
2|------------------------------------|
3|-7-7-7-7----------------------------| 2x
4|-7-7-7-7--7-7-7-7--4-4-4-4--2-2-2-2-|
5|-5-5-5-5--7-7-7-7--4-4-4-4--2-2-2-2-|
6|----------5-5-5-5--2-2-2-2--0-0-0-0-|

G-1
1|-5-5-5-5-5-5-5-5---------------------------5-5-5-0-0-5-5-0-5-4-0-2-0-|
2|-5-5-5-5-5-5-5-5-----------------------------------------------------|
3|-2-2-2-2-2-2-2-2-----------------------------------------------------|
4|---------------------------------------------------------------------|
5|---------------------------------------------------------------------|
6|---------------------------------------------------------------------|

G-2
1|---------------------------------------------------------------------|
2|---------------------------------------------------------------------|
3|-7------------------------------------------7--7--7--7---------------| 
4|-7---------------7-7-7-7--4-4-4-4--2-2-2-2--7--7--7--7---2--4--4--7--|
5|-5---------------7-7-7-7--4-4-4-4--2-2-2-2--5--5--5--5---2--4--4--7--|
6|-----------------5-5-5-5--2-2-2-2--0-0-0-0---------------0--2--2--5--|

Bridge
Both Guitars
1|------------------------------------|
2|------------------------------------|
3|-7-7-7-7----------------------------| 3x
4|-7-7-7-7--7-7-7-7--4-4-4-4--2-4-4-7-|
5|-5-5-5-5--7-7-7-7--4-4-4-4--2-4-4-7-|
6|----------5-5-5-5--2-2-2-2--0-2-2-5-|

1|----------------|
2|----------------|
3|-7-7-7-7--------|
4|-7-7-7-7--2-2-2-|
5|-5-5-5-5--2-2-2-|
6|----------0-0-0-|

Breakdown
G-1
1|---------------------------------|
2|---------------------------------|
3|-----4-------4-------4-------4---| 3X
4|---2---2---4---4---4---4---2---2-|
5|-0-------2-----------------------|
6|-----------------2-------0-------|

1|--------------------0-|
2|--------------------0-|
3|-----4-----4-----4--4-|
4|---2-----4-----4----2-|
5|-0-----2--------------|
6|-------------2--------|

Chorus
G-1
1|-----0-------0-------0-------0----|
2|----------------------------------|
3|---2---2---2---2---2---2---2---2--| 2x
4|-0---------------4-------2--------|
5|---------0------------------------|
6|----------------------------------|

G-2
1|------------------------------------|
2|------------------------------------|
3|-7-7-7-7----------------------------| 2x
4|-7-7-7-7--7-7-7-7--4-4-4-4--2-2-2-2-|
5|-5-5-5-5--7-7-7-7--4-4-4-4--2-2-2-2-|
6|----------5-5-5-5--2-2-2-2--0-0-0-0-|

G-1
1|-5-5-5-5-5-5-5-5---------------------------5-5-5-0-0-5-5-0-5-4-0-2-0-|
2|-5-5-5-5-5-5-5-5-----------------------------------------------------|
3|-2-2-2-2-2-2-2-2-----------------------------------------------------|
4|---------------------------------------------------------------------|
5|---------------------------------------------------------------------|
6|---------------------------------------------------------------------|

G-2
1|---------------------------------------------------------------------|
2|---------------------------------------------------------------------|
3|-7------------------------------------------7--7--7--7---------------| 
4|-7---------------7-7-7-7--4-4-4-4--2-2-2-2--7--7--7--7---2--4--4--7--|
5|-5---------------7-7-7-7--4-4-4-4--2-2-2-2--5--5--5--5---2--4--4--7--|
6|-----------------5-5-5-5--2-2-2-2--0-0-0-0---------------0--2--2--5--|

Outro Chorus
G-1
1|-----0-------0-------0-5-0-5-4-0-2-0--|
2|--------------------------------------|
3|---2---2---2---2---2------------------| 2x
4|-0---------------4--------------------|
5|---------0----------------------------|
6|--------------------------------------|

G-2
1|------------------------------------|
2|------------------------------------|
3|-7-7-7-7----------------------------| 2x
4|-7-7-7-7--7-7-7-7--4-4-4-4--2-4-4-7-|
5|-5-5-5-5--7-7-7-7--4-4-4-4--2-4-4-7-|
6|----------5-5-5-5--2-2-2-2--0-2-2-5-|


End on
  G-1   G-2
1|-5-| |---|
2|-3-| |---|
3|---| |-7-|
4|---| |-7-|
5|---| |-5-|
6|---| |---|
Comments