Our Lady Peace - Do You Like It Chords & Tabs

 

Do You Like It Chords & Tabs

Our Lady Peace Chords & Tabs

Version: 1 Type: Tab 0 ratings
1 star 2 stars 3 stars 4 stars 5 stars
comments

Do You Like It Tab

Artist: Our Lady Peace
Title: Do You Like It
Transcribed by: fuj00 (matreex@antisocial.com)
Tuning: 1/2 Step Down

***this is what i got from listening to a rather poor quality mp3, 
so it's probably not 100% correct.

*** For the most part i did not include strumming.

Intro/Verse:
-----------------------------------------------------------
------------------------------------------------------------
---------4--------------4--------------4---------------4----
------2-----2--------4-----4--------4-----4---------2-----2-
---0-------------2------------------------------------------
---------------------------------2--------------0-----------

Prechorus:
-----------------------------------------------------
---------------------------------------------------------
---------------------------------------------------------
---7-----9---4---2---------------------------------------
---7-----9---4---2---------------------------------------
---5-----7---2---0---------------------------------------

Chorus:
Guitar 1 (Play 2x)
---------------------------
---------------------------
----7----------------------
----7----7-----4----2------
----5----7-----4----2------
---------5-----2----0------
[ Tab from: http://www.guitartabs.cc/tabs/o/our_lady_peace/do_you_like_it_tab.html ]
Then Play this
---5-5-5-5-5-5-5-5--------------------------------------------
---x-x-x-x-x-x-x-x--------------------------------------------
---2-2-2-2-2-2-2-2---------------------7-7-7-7--7-7--7--------
----------------------7---4---2--------7-7-7-7--7-7--7---7--4-
----------------------7---4---2--------5-5-5-5--5-5--5---7--4-
----------------------5---2---0--------------------------5--2-

Chorus:
Guitar 2 (Play 2x)
--------------------------------------
--------------------------------------
-------9-------9--------9--------9----
----7-------9---------9-------7-------
--------------------------------------
-5--------7-------14-------12---------

Then Play this:
-5-5-5-5-5-5-5-5---------------------------------5-5---5-----5/7--7/5-------
x-x-x-x-x-x-x-x-------------------------------------5---5---5/7--7/5----7---
2-2-2-2-2-2-2-2--------9-------9------9---------------------------------x---
---------------------9-------9------7-----------------------------------4---
----------------------------------------------------------------------------
------------------7-------14-----12-----------------------------------------

Bridge (play after 2nd chorus, and strum after 3rd chorus):
play 2x                                  then this
-------------------------------------|----------
-------------------------------------|----------
-7-7-7------------------------5------|--7-------
-7-7-7--7-7-7---4-4-4---2-4-7-5------|--7---7---
-5-5-5--7-7-7---4-4-4---2-4-7-7------|--5---7---
--------5-5-5---2-2-2---0-2-5--------|------5---
Comments