Our Lady Peace - Clumsy Chords & Tabs

 

Clumsy Chords & Tabs

Our Lady Peace Chords & Tabs

Version: 1 Type: Bass Tab 0 ratings
1 star 2 stars 3 stars 4 stars 5 stars
comments

Clumsy Bass Tab

   
Clumsy
Our Lady Peace: Clumsy
Tabbed by Scott Grant (kaputsk@geocities.com) 

Tune down half a step! (Eb Ab Db Gb)
You'll have to figure out the rhythm yourself, but it's not too hard..
It's really messy.. Sorry.. :)0:47
---- 

Eb --5-5-5-5-5-5-5-5-|-5-5-5-5-5-5-5-5-|-4-4-4-4-4-4-4-4-|-4-4-4-4-4-4-4-4--Eb --5-5-5-5-5-5-5-5-|-5-5-5-5-5-5-5-5-|-7-7-7-7-7-7-7-7-|-7-7-7-7-7-7\0----Gb ------------------|-----------------|-----------------|------------21----
Db ------------------|-----------------|-----------------|-/11----/19-------
Ab ------------------|-----------------|-----------------|-----9------------
Eb --2-2-2-2-2-2---0-|-2-2-2-2-2-2---0-|-2-2-2-2-2-2---0-|------------------Chorus
------ 

Db ---------------------2------------------
Ab --4----4---0--0----------2-2--2-2-2--2--
Eb -----4-----------0-0-------------------- 

Db ---------------------2------------------------------2-4-4-4--2------
Ab --4----4---0--0----------2------0-0-2-4-4-2--2-2-2-------------4-2--
Eb -----4-----------0-0---------0-------------------------------------- 
[ Tab from: http://www.guitartabs.cc/tabs/o/our_lady_peace/clumsy_btab.html ]
You will be safe
Ab --0-0-0-------2-2-2----------0-0-0-------2--
Eb --------0-0-0-------2--2-2-2-------0-0-0----1:33
---- 

Eb --2--2-2-2--2--0--0-0-0--0/7--7-7-7--7-7-7--7-7-0-4-0-- play this 2x 

Eb --2--2-2-2--2-2-5--5-5-5--5-5-0--0-0-0--0/7--7-7-7-0-4-0-2-- 

Ab ------------------------------------------/12-12-14-14--
Eb --2-2-2--2-2-5--5-5-5--7--7-7-7--7-7-7--7--------------- 

play the 0:47 bit again here, but for the cool slide, play this:
Db -----/11----/19-----
Ab ---------9------17--
Eb --0-----------------After chorus (2:36)
-------------------
Db --/9-/9-/9-- 

Eb --3-3-3-2-2\---5-5-5-0-0-0-0-- rep 3x 

Db --------------------------/14-14-14-14-14-14-14-14\--
Ab ---------/9-9-9-9--7-7-7-----------------------------
Eb --3-3-3----------------------------------------------In here, ending
---------------
This is mainly the 'you will be safe' bit, with a few little improvisations
at the end.. Just throw some extra notes on there at the end of each riff..
eg: 

(3:47)
Ab --9-9-9-7------
Eb ----------9-7-- 

End on:
Ab --2-- 

Send comments, suggestions, flames, etc.. :)
Comments