Our Lady Peace - Clumsy Acoustic Live Chords & Tabs

 

Clumsy Acoustic Live Chords & Tabs

Our Lady Peace Chords & Tabs

Version: 1 Type: Tab 0 ratings
1 star 2 stars 3 stars 4 stars 5 stars
comments

Clumsy Acoustic Live Tab

   
                            CLUMSY (ACOUSTIC) (Live)
                          As recorded by Our Lady Peace
                          (From the 1997 Album CLUMSY)

Words by Raine Maida

Music by Our Lady Peace
Arranged by Our Lady Peace
Tabbed By Donkey Fly

This Was A Live Peformance I Saw A Video Of On AOL , It's Acoustic Too...Im Sure 
It's Very Accurate.It's Been Set Up On PTE For Extra Detail.

       F#m11/C#                 E                  Bsus4                Asus2
      x 4 4 2 0 0          0 2 2 1 0 0          x 2 4 4 0 0          x 0 2 2 0 0

        F#11/C#                C#m                   G                    D
      x 4 4 3 0 0          x 4 6 6 5 4          3 x 0 0 3 3          x x 0 2 3 2

 Intro
  Q=75                                      Faster Q=85
  A             G#            A             B        F#m11/C#
 4/4
  Gtr II
                                                     ||
                                                     //

  Gtr I
|----0-2--4---|----0-2--4---|----0-2--4---|-^7----------|
|-------------|-------------|-------------|-^x----------|
|-2-----------|-1-----------|-2-----------|-^4----------|
|-------------|-------------|-------------|-------------|
|-------------|-------------|-------------|-------------|
|-------------|-------------|-------------|-------------|


 Verse
          E         Bsus4         F#m11/C#E         Bsus4
  |     |||     ||  |         ||  |     |||     ||  | | | || |  | |
  /     ///     //  /         //  /     ///     //  / / / // /  / /

|-----------------|-------------|-----------------|-----------------|
|-----------------|-------------|-----------------|-----------4-5---|
|-----4-------4---|-----4-------|-----4-------4---|-----4-----------|
|---4-------4-----|---4---------|---4-------4-----|---4-------------|
|-----------------|-2-----------|-----------------|-2---------------|
|-2-------0-------|-------------|-2-------0-------|-----------------|


  F#m11/C# E              Bsus4
  | | || | |  |  || || |  | | || ||||| || |
  / / // / /  /  // // /  / / // ///// // /

|-----------------------|---------------0--|
|------2----------------|------------4-----|
|--------4--------1-----|------------------|
|---4----------2-----4--|---2--4-----------|
|-----------------------|-2----------------|
|-2---------0-----------|------------------|


  F#m11/C# E              Bsus4
  | | || | |  |  || || |  | | || ||||| || |
  / / // / /  /  // // /  / / // ///// // /

|-----------------------|---------------0-----|
|------2----------------|------------4--------|
|--------4--------1-----|---------------------|
|---4----------2-----4--|---2--4--------------|
|-----------------------|-2-------------------|
|-2---------0-----------|---------------------|


  F#m11/C# Asus2          E        Bsus4          F#m11/C# Asus2          Bsus4
  | | || | |  |  || || |  | | || | |  |  || || |  | | || | |  |  || || |  |
  / / // / /  /  // // /  / / // / /  /  // // /  / / // / /  /  // // /  /

|-----------------0-----|--------------------0--|-----------------------|------|
|------2-------------2--|-----------------4-----|------2----------------|------|
|--------4--------------|------1----------------|--------4--------6-----|-4----|
|---4----------2--------|---2----4-----4--------|---4----------4-----4--|------|
|-----------0-----------|-2---------2-----------|-----------0-----------|------|
|-2---------------------|-----------------------|-2---------------------|------|


 Pre-Chorus
  $
  Asus2
  | | | | |  |  | |  |  |  |  | | | | |
  / / / / /  /  / /  /  /  /  / / / / /

|-5-5-5-5-5-(5)-5-5-(5)-5-(5)-5-5-5-5-5-|
|-5-5-5-5-5-(5)-5-5-(5)-5-(5)-5-5-5-5-5-|
|-6-6-6-6-6-(6)-6-6-(6)-6-(6)-6-6-6-6-6-|
|-7-7-7-7-7-(7)-7-7-(7)-7-(7)-7-7-7-7-7-|
|-7-7-7-7-7-(7)-7-7-(7)-7-(7)-7-7-7-7-7-|
|-5-5-5-5-5-(5)-5-5-(5)-5-(5)-5-5-5-5-5-|


  E
  | | | | |  |  | |  |  |  |  | | | | |
  / / / / /  /  / /  /  /  /  / / / / /

|-4-4-4-4-4-(4)-4-4-(4)-4-(4)-4-4-4-4-4--|
|-5-5-5-5-5-(5)-5-5-(5)-5-(5)-5-5-5-5-5--|
|-4-4-4-4-4-(4)-4-4-(4)-4-(4)-4-4-4-4-4--|
|-6-6-6-6-6-(6)-6-6-(6)-6-(6)-6-6-6-6-6--|
|-7-7-7-7-7-(7)-7-7-(7)-7-(7)-7-7-7-7-7--|
|-4-4-4-4-4-(4)-4-4-(4)-4-(4)-4-4-4-4-4--|


  Asus2
  | | | | |  |  | |  |  |  |  | | | | |
  / / / / /  /  / /  /  /  /  / / / / /

|-5-5-5-5-5-(5)-5-5-(5)-5-(5)-5-5-5-5-5-|
|-5-5-5-5-5-(5)-5-5-(5)-5-(5)-5-5-5-5-5-|
|-6-6-6-6-6-(6)-6-6-(6)-6-(6)-6-6-6-6-6-|
|-7-7-7-7-7-(7)-7-7-(7)-7-(7)-7-7-7-7-7-|
|-7-7-7-7-7-(7)-7-7-(7)-7-(7)-7-7-7-7-7-|
|-5-5-5-5-5-(5)-5-5-(5)-5-(5)-5-5-5-5-5-|


  Bsus4
  | | | | |  |  | |  |  |  |  | | | | |
  / / / / /  /  / /  /  /  /  / / / / /

|-7-7-7-7-7-(7)-7-7-(7)-7-(7)-7-7-7-7-7--|
|-7-7-7-7-7-(7)-7-7-(7)-7-(7)-7-7-7-7-7--|
|-8-8-8-8-8-(8)-8-8-(8)-8-(8)-8-8-8-8-8--|
|-9-9-9-9-9-(9)-9-9-(9)-9-(9)-9-9-9-9-9--|
|-9-9-9-9-9-(9)-9-9-(9)-9-(9)-9-9-9-9-9--|
|-7-7-7-7-7-(7)-7-7-(7)-7-(7)-7-7-7-7-7--|


  F#m11/C#                      F#11/C#
  | | | | | | | | | | | | | |   | | | | | | | |   | |
  / / / / / / / / / / / / / /   / / / / / / / /   x x

|-0-0-0-0-0-0-0-0-0-0-0-0-0-0-|-0-0-0-0-0-0-0-0---x-x-|
|-0-0-0-0-0-0-0-0-0-0-0-0-0-0-|-0-0-0-0-0-0-0-0---x-x-|
|-2-2-2-2-2-2-2-2-2-2-2-2-2-2-|-3-3-3-3-3-3-3-3---x-x-|
|-4-4-4-4-4-4-4-4-4-4-4-4-4-4-|-4-4-4-4-4-4-4-4---x-x-|
|-4-4-4-4-4-4-4-4-4-4-4-4-4-4-|-4-4-4-4-4-4-4-4---x-x-|
|-----------------------------|-----------------------|


 Chorus
  C#m      Asus2   E              Bsus4
  | | | | || | | | |    |  | | | || | | | |
  / / / / // / / / /    /  / / / // / / / /

|--------------------|-------0-------------|
|-----5-4--2-0-------|------------0---4----|
|-6--------2-2-x-x-1-|-(1)-----1--------4--|
|-6-6------2---x-x-2-|-(2)-2--------4------|
|-4--------0---x-x-2-|-(2)-----------------|
|------------------0-|-(0)-----------------|


  C#m      Asus2   E               Bsus4
  | | | | || | | | |    |  | | | | | | | | |
  / / / / // / / / /    /  / / / / / / / / /

|--------------------|-------0-------0---0--|
|-----5-4--2-0-------|-------0-------0---0--|
|-6--------2-2-x-x-1-|-(1)---1-x-x-4---4----|
|-6-6------2---x-x-2-|-(2)-2-2-x-x-4---4----|
|-4--------0---x-x-2-|-(2)-----x-x-2---2----|
|------------------0-|-(0)------------------|


  Asus2    C#m     Bsus4           F#m11/C#
  | | | | || | | | |    |  | | | | | | | || |
  / / / / // / / / /    /  / / / / / / / // /

|-----0--------------|---------------0--------|
|-------4------------|-----------------4------|
|-2-2------6-6-x-x-4-|-(4)-4-4-x-x-2----------|
|-2-2------6-6-x-x-4-|-(4)-4-4-x-x-4------x-x-|
|-0-0------4-4-x-x-2-|-(2)-2-2-x-x-4------x-x-|
|--------------------|--------------------x-x-|


                                                  To Coda
  Asus2   E           Bsus4           F#m11/C#
  | | | | |  |  | | | |    |    | | | |       || | | | |
  / / / / /  /  / / / /    /    / / / /       // / / / /

|-0-0-x-x-0-(0)-0-x-x-0-|-(0)-0-0-0-0-0-(0)-0--0-0-0-0-0--|
|-0-0-x-x-0-(0)-0-x-x-0-|-(0)-0-0-0-0-0-(0)-0--0-0-0-0-0--|
|-2-2-x-x-1-(1)-1-x-x-4-|-(4)-4-4-4-4-2-(2)-2--2-2-2-2-2--|
|-2-2-x-x-2-(2)-2-x-x-4-|-(4)-4-4-4-4-4-(4)-4--4-4-4-4-4--|
|-0-0-x-x-2-(2)-2-x-x-2-|-(2)-2-2-2-2-4-(4)-4--4-4-4-4-4--|
|---------0-(0)-0-x-x---|---------------------------------|


  Asus2   E           Bsus4
  | | | | |     | | | |    |        | |
  / / / / /     / / / /    /        x x

|-0-0-x-x-0-(0)-0-x-x-0-|-(0)-------x-x-|
|-0-0-x-x-0-(0)-0-x-x-0-|-(0)-------x-x-|
|-2-2-x-x-1-(1)-1-x-x-4-|-(4)-------x-x-|
|-2-2-x-x-2-(2)-2-x-x-4-|-(4)-------x-x-|
|-0-0-x-x-2-(2)-2-x-x-2-|-(2)-------x-x-|
|---------0-(0)-0-x-x---|---------------|


 Verse
  F#m11/C# E                Bsus4
  | | || | |  |   || || |   | | || | | | | | || |
  / / // / /  /   // // /   / / // / / / / / // /

|-5-5--5-5--5---7--7--7-5-|-------------------4--|
|-------------5-----------|-7-7--7-7-7-7-7-7-----|
|-------------------------|----------------------|
|-------------------------|----------------------|
|-------------------------|----------------------|
|-------------------------|----------------------|

[ Tab from: http://www.guitartabs.cc/tabs/o/our_lady_peace/clumsy_acoustic_live_tab.html ]
  F#m11/C# E                Bsus4
  | | || | |  |   || || |   | | || | | | | | || |
  / / // / /  /   // // /   / / // / / / / / // /

|-5-5--5-5--5---7--7--7-5-|----------------5--4-----|
|-------------5-----------|-7-7--7-7-7-7-7----------|
|-------------------------|-------------------------|
|-------------------------|-------------------------|
|-------------------------|-------------------------|
|-------------------------|-------------------------|


  F#m11/C# Asus2          E           Bsus4
  | | || | |  |  || || |  |   | | | | |   |  || || |
  / / // / /  /  // // /  /   / / / / /   /  // // /

|-----------5--5--5--5--|---4-4---4---4-2--2--2-----|
|-7-7--7-7--------------|-5-----5---5---4--4--4--2--|
|-----------------------|---------------------------|
|-----------------------|---------------------------|
|-----------------------|---------------------------|
|-----------------------|---------------------------|


                                       D.S. al Coda
  F#m11/C# Asus2          Bsus4
  | | || | |  |  || || |  |   || |  |  | | | | | | |
  / / // / /  /  // // /  /   // /  /  / / / / / / /

|-2-2--2-2--5--5--5--5--|-7-7--7-7-(7)-7-7-7-7-7-7-7----|
|-----------------------|-7-7--7-7-(7)-7-7-7-7-7-7-7----|
|-----------------------|-------------------------------|
|-----------------------|-------------------------------|
|-----------------------|-------------------------------|
|-----------------------|-------------------------------|


                                 Bridge
  &
  Asus2   E                         G     D       Asus2   E
  | | | | |       |   |             | | | |       | | | | | | | | |
  / / / / /       /   /             / / / /       / / / / / / / / /

                                                                      3x
|-0-0-x-x-0-(0)-0-0-0-0-0-x-x-||--x-3-3-0-2----|--5-5-x-x-----0-x-x---||
|-0-0-x-x-0-(0)-0-0-0-0-0-x-x-||o-x-3-3-3-3----|--5-5-x-x-0---0-x-x--o||
|-2-2-x-x-1-(1)-1-1-1-1-1-x-x-||--x-0-0-0-2----|--6-6-x-x-1-1-1-x-x---||
|-2-2-x-x-2-(2)-2-2-2-2-2-x-x-||--x-0-0---0----|--7-7-x-x-2-2-2-x-x---||
|-0-0-x-x-2-(2)-2-2-2-2-2-x-x-||o-x-x-x--------|--7-7-x-x-2-2---x-x--o||
|---------0-(0)-0-0-0-0-0-x-x-||--x-3-3--------|--5-5-x-x---0---x-x---||


  G         D           E
  | | | | | |   | | |   | | | | || | |
  / / / / / /   / / /   / / / / // / /

|-3-3-3-x-x-2-2-2-x-x-|-0-0-0-0--0-0-0-x-|
|-3-3-3-x-x-3-3-3-x-x-|-0-0-0-0--0-0-0-x-|
|-0-0-0-x-x-2-2-2-x-x-|-1-1-1-1--1-1-1-x-|
|-0-0-0-x-x-0-0-0-x-x-|-2-2-2-2--2-2-2-x-|
|-x-x-x-x-x-----------|-2-2-2-2--2-2-2-x-|
|-3-3-3-x-x-----------|-0-0-0-0--0-0-0-x-|


 Breakdown
  A5                                E/Ab
|---------------------------------|---------------------------------|
|---------------------------------|---------------------------------|
|-(9)-(9)-(9)-(9)-(9)-(9)-(9)-(9)-|-(9)-(9)-(9)-(9)-(9)-(9)-(9)-(9)-|
|-(7)-(7)-(7)-(7)-(7)-(7)-(7)-(7)-|-(6)-(6)-(6)-(6)-(6)-(6)-(6)-(6)-|
|---------------------------------|---------------------------------|
|---------------------------------|---------------------------------|


  A5                                B5                                        F#5        C#m
                                                                                         |
                                                                                         /

|---------------------------------|-----------------------------------------|------------0---|
|---------------------------------|-----------------------------------------|------------0---|
|-(9)-(9)-(9)-(9)-(9)-(9)-(9)-(9)-|-(11)-(11)-(11)-(11)-(11)-(11)-(11)-(11)-|-(11)-------6---|
|-(7)-(7)-(7)-(7)-(7)-(7)-(7)-(7)-|--(9)--(9)--(9)--(9)--(9)--(9)--(9)--(9)-|-(11)-------6---|
|---------------------------------|-----------------------------------------|--(9)-------4---|
|---------------------------------|-----------------------------------------|----------------|


 Chorus
             Asus2   E              Bsus4
   |  | | | || | | | |    |  | | | || | | | |
   /  / / / // / / / /    /  / / / // / / / /

|-(0)------------------|-------0-------------|
|-(0)---5-4--2-0-------|------------0---4----|
|-(6)--------2-2-x-x-1-|-(1)-----1--------4--|
|-(6)-6------2---x-x-2-|-(2)-2--------4------|
|-(4)--------0---x-x-2-|-(2)-----------------|
|--------------------0-|-(0)-----------------|


  C#m      Asus2   E               Bsus4
  | | | | || | | | |    |  | | | | | | | | |
  / / / / // / / / /    /  / / / / / / / / /

|--------------------|-------0-------0---0--|
|-----5-4--2-0-------|-------0-------0---0--|
|-6--------2-2-x-x-1-|-(1)---1-x-x-4---4----|
|-6-6------2---x-x-2-|-(2)-2-2-x-x-4---4----|
|-4--------0---x-x-2-|-(2)-----x-x-2---2----|
|------------------0-|-(0)------------------|


  Asus2    C#m     Bsus4           F#m11/C#
  | | | | || | | | |    |  | | | | | | | || |
  / / / / // / / / /    /  / / / / / / / // /

|-----0--------------|---------------0--------|
|-------4------------|-----------------4------|
|-2-2------6-6-x-x-4-|-(4)-4-4-x-x-2----------|
|-2-2------6-6-x-x-4-|-(4)-4-4-x-x-4------x-x-|
|-0-0------4-4-x-x-2-|-(2)-2-2-x-x-4------x-x-|
|--------------------|--------------------x-x-|


  Asus2   E           Bsus4           F#m11/C#
  | | | | |  |  | | | |    |    | | | |       | | |  |  | |
  / / / / /  /  / / / /    /    / / / /       / / /  /  / /

|-0-0-x-x-0-(0)-0-x-x-0-|-(0)-0-0-0-0-0-(0)-0-0-0-0-(0)-0-0--|
|-0-0-x-x-0-(0)-0-x-x-0-|-(0)-0-0-0-0-0-(0)-0-0-0-0-(0)-0-0--|
|-2-2-x-x-1-(1)-1-x-x-4-|-(4)-4-4-4-4-2-(2)-2-2-2-2-(2)-2-2--|
|-2-2-x-x-2-(2)-2-x-x-4-|-(4)-4-4-4-4-4-(4)-4-4-4-4-(4)-4-4--|
|-0-0-x-x-2-(2)-2-x-x-2-|-(2)-2-2-2-2-4-(4)-4-4-4-4-(4)-4-4--|
|---------0-(0)-0-x-x---|------------------------------------|


   Outro
    Asus2     E         Bsus4         F#m11/C#
    | | | | | | | | | | |   | | | | | | | | | | | | | |
    / / / / / / / / / / /   / / / / / / / / / / / / / /

||--0-0-0-0-0-0-0-0-0-x-0-|-0-0-0-0-0-0-0-0-0-0-0-0-x-x--||
||o-0-0-0-0-0-0-0-0-0-x-0-|-0-0-0-0-0-0-0-0-0-0-0-0-x-x-o||
||--2-2-2-2-2-1-1-1-1-x-4-|-4-4-4-4-4-2-2-2-2-2-2-2-x-x--||
||--2-2-2-2-2-2-2-2-2-x-4-|-4-4-4-4-4-4-4-4-4-4-4-4-x-x--||
||o-0-0-0-0-0-2-2-2-2-x-2-|-2-2-2-2-2-4-4-4-4-4-4-4-x-x-o||
||------------0-0-0-0-x---|------------------------------||


    Asus2     E                 Bsus4     F#m11/C#
    | | | | | | | | | | | | |   | | | | | | | | | | | | | |
    / / / / / / / / / / / / /   / / / / / / / / / / / / / /

                                                             4x
||--0-0-0-0-0-0-0-0-0-0-0-x-x-|-0-0-0-0-0-0-0-0-0-0-0-0-x-x--||
||o-0-0-0-0-0-0-0-0-0-0-0-x-x-|-0-0-0-0-0-0-0-0-0-0-0-0-x-x-o||
||--2-2-2-2-2-1-1-1-1-1-1-x-x-|-4-4-4-4-4-2-2-2-2-2-2-2-x-x--||
||--2-2-2-2-2-2-2-2-2-2-2-x-x-|-4-4-4-4-4-4-4-4-4-4-4-4-x-x--||
||o-0-0-0-0-0-2-2-2-2-2-2-x-x-|-2-2-2-2-2-4-4-4-4-4-4-4-x-x-o||
||------------0-0-0-0-0-0-x-x-|------------------------------||


  Asus2     E               Bsus4
  | | | | | | | | | | | |   |           |
  / / / / / / / / / / / /   /           /

|-0-0-0-0-0-0-0-0-0-0-x-x-|-2--------|-(2)----*|
|-0-0-0-0-0-0-0-0-0-0-x-x-|-2--------|-(2)----*|
|-2-2-2-2-2-1-1-1-1-1-x-x-|-4--------|-(4)----*|
|-2-2-2-2-2-2-2-2-2-2-x-x-|-4--------|-(4)----*|
|-0-0-0-0-0-2-2-2-2-2-x-x-|-2--------|-(2)----*|
|-----------0-0-0-0-0-x-x-|----------|--------*|


Tablature Legend
----------------
 h   - hammer-on
 p   - pull-off
 b   - bend
 pb  - pre-bend
 r   - bend release (if no number after the r, then release immediately)
 /\  - slide into or out of (from/to "nowhere")
 s   - legato slide
 S   - shift slide
  - natural harmonic
[n]  - artificial harmonic
n(n) - tapped harmonic
 ~   - vibrato
 tr  - trill
 T   - tap
 TP  - trem. picking
 PM  - palm muting
\n/  - tremolo bar dip; n = amount to dip
 \n  - tremolo bar down
 n/  - tremolo bar up
/n\  - tremolo bar inverted dip
 =   - hold bend; also acts as connecting device for hammers/pulls
 <>  - volume swell (louder/softer)
 x   - on rhythm slash represents muted slash
 o   - on rhythm slash represents single note slash

Misc Legend
-----------
 |  - bar
||  - double bar
||o - repeat start
o|| - repeat end
*|  - double bar (ending)
 :  - bar (freetime)
 $  - Segno
 &  - Coda
Tempo markers -  = BPM(8/16=s8/s16), where s8 = swing 8ths, s16 = swing 16ths


Well That's It , I Think You Can Still See The Recording On AOL. Enjoy
Comments