Our Lady Peace - Bring Back The Sun Chords & Tabs

 

Bring Back The Sun Chords & Tabs

Our Lady Peace Chords & Tabs

Version: 1 Type: Tab 0 ratings
1 star 2 stars 3 stars 4 stars 5 stars
comments

Bring Back The Sun Tab

Song: Bring back the sun
Artist: Our Lady Peace
Album: Gravity
Tabbed by: charges_what_charges@hotmail.com

Our lady peace is awesome! if you ever get the chance to see them live you 
should go, they put on a great concert. This is a nice song off their new album "Gravity".

E|------------------0---|
B|---1--0---1--3--0-----|
G|---2--0---0--0--0-----|
D|---2--0---------------|
E|----------------------|
A|----------------------|
[ Tab from: http://www.guitartabs.cc/tabs/o/our_lady_peace/bring_back_the_sun_tab.html ]
E|------------------0---|
B|---1--0---1--3--0-----|  note: 0's stand for open-fingered  ( you just play the strings)  
G|---2--0---0--0--0-----|    
D|---2--0---------------|
E|----------------------| 
A|----------------------|

All you pretty much have to do is play these tabs for the whole song.
That's it! it's an easy song to play or atleast an easy intro to play. 
it's pretty much all there is to play through the song except the solo and bass.
L8er!
Comments