Our Lady Peace - Blister Chords & Tabs

 

Blister Chords & Tabs

Our Lady Peace Chords & Tabs

Version: 1 Type: Tab 0 ratings
1 star 2 stars 3 stars 4 stars 5 stars
comments

Blister Tab

   
##################################################################################
# This file is the author's own work and represents their interpretation of the  #
# song. You may only use this file for private study, scholarship, or research.  #
##################################################################################

T1: Dinuka Perera, duke66@hotmail.com, Our Lady Peace, Blister, N/A yet

S1: Our Lady Peace played this song at Woodstock '99 and it will be a
huge success when it will be released. I tabbed out all of the rythm
guitar and included the chorus for the lead guitar. This song is played
half a step down., Tuning low to high (Eb Ab Db Gb Bb Eb)

Intro X3

e|-------------|
B|-------------|
G|-------------|
D|-0--0--000---|
A|-9--9--999---|
E|-7--7--777---|

Verse 1

e|-------------------------------------------------------------|
B|-------------------------------------------------------------|
G|-------------------------------------------------------------|
D|-0--0--000----------0--0--000----------0--0--000-------------|
A|-9--9--999----------9--9--999----------9--9--999-------------|
E|-7--7--777----------7--7--777----------7--7--777-------------|


e|-------------------------------------------------------------|
G|-------------------------------------------------------------|
D|-8--8--888-----8--8--888-------------------------------------|
A|-9--9--999-----9--9--999-------------------------------------|
E|-7--7--777-----7--7--777-------------------------------------|
[ Tab from: http://www.guitartabs.cc/tabs/o/our_lady_peace/blister_tab.html ]
e|-------------------------------------------------------------|
B|-------------------------------------------------------------|
G|-------------------------------------------------------------|
D|-000--0--0-----000--0--0---------------000--0-000------------|
A|-555--5--5-----777--7--7---------------999--9-999------------|
E|-333--3--3-----555--5--5---------------777--7-777------------|

   

Chorus

Guitar 1 (Rythm)

G-Bm-a

Guitar 2 (Lead)

e|------555--7---555--77---------------------------------------|
B|------888--8---888--88---------------------------------------|
G|------666--6---666--66---------------------------------------|
D|-------------------------------------------------------------|
A|-------------------------------------------------------------|
E|-------------------------------------------------------------|

     
Verse 2
e|-------------------------------------------------------------|
B|-------------------------------------------------------------|
G|-------------------------------------------------------------|
D|-0--0--000----------0--0--000--------------------------------|
A|-9--9--999----------9--9--999--------------------------------|
E|-7--7--777----------7--7--777--------------------------------|

   Lonely.......wandering........ 

e|-------------------------------------------------------------|
B|-------------------------------------------------------------|
G|-------------------------------------------------------------|
D|-8--8--888-----8--8--888-------------------------------------|
A|-9--9--999-----9--9--999-------------------------------------|
E|-7--7--777-----7--7--777-------------------------------------|

   

e|-------------------------------------------------------------|
B|-------------------------------------------------------------|
G|-------------------------------------------------------------|
D|-000--0--0-----000--0--0-------0--0--000----0--0--000--------|
A|-555--5--5-----777--7--7-------9--9--999----9--9--999--------|
E|-333--3--3-----555--5--5-------7--7--777----7--7--777--------|

   .

Repeat Chorus

Bridge

D Chord

Repeat Chorus

End on a G
Comments