Our Lady Peace - Automatic Flowers Chords & Tabs

 

Automatic Flowers Chords & Tabs

Our Lady Peace Chords & Tabs

Version: 1 Type: Bass Tab 0 ratings
1 star 2 stars 3 stars 4 stars 5 stars
comments

Automatic Flowers Bass Tab

   
Song: Automatic Flowers
Artist: Our Lady Peace
Album: Clumsy
Tabbed By: L.A.

I do believe the bassist (Duncan Coutts, on this CD at least) uses a 5 
string. This is the tab for a 4 string, so if you tune the E string down to 
D you'll be set.

16\   = slide down (or up as the case may be) till you reach the fret to be 
played 	  on the next higher/lower string

Intro					    1			2
G|-------------------------|----------------|--------|
D|*-----------------------*|----------------|--------|
A|*-4-4/16p15h16\---------*|-/14-14-14p13-9-|--------|
D|---------------7777-9999-|----------------|-4-4/16-|

Prechorus	  "no-one..."	  "her find..."
G|-----------|-----------------|-----------------------|
D|-----------|*---------------*|-----------------------| bar with repeats x3
A|-----------|*------------/11*|--------------14-14-14-|
D|-7777-6666-|-4-4/16--6-6/----|-7-9-11-14-9/----------|

Chorus			    1		      2		3
G|-------------------|-------------|-------------|----------|
D|-------------------|-------------|-------------|----------|
A|-------------------|-7h999-7h999-|-7h9999-7--4-|-7h9999---|
D|-0000-777-6h7-9999-|-------------|-------------|--------0-|
[ Tab from: http://www.guitartabs.cc/tabs/o/our_lady_peace/automatic_flowers_btab.html ]
2nd Verse (no bass on first verse)
G|-----------------------|-----------------------------------|------------------|
D|-----------------------|-----------------------------------|------------------|
A|-----------------------|-----------------------------4h6-6-|------------------|
D|-0000-3333-1111-4444h6-|-0000-0h2h3-33-3h5h7-777-6-6-------|-000-0h2h3=p2h3-3-|

|------------------------|
|------------------------|
|------------------------| into prechorus repeats
|-6-777-7h8-6-6-11h13-13-|

2nd Chorus-play first chorus with 4th ending:
G|-------------|
D|-------------|
A|-------------| and ending #3 again
D|-4-4-4p3h4p3-|

Interlude							     1		 2
G|--------------------|-----------------------|-------------|----------------|
D|--------------------|*---------------------*|-------------|----------------|
A|-(9)/11-11-11-11-11-|*---------------------*|-7h9999-7--4-|(7)/9-(7)/9-9-7-|
D|--------------------|-0-0-0h4h6h7-7-7-6h999-|-------------|----------------|
       3		     4
|-----6h9-9-6-4-|-------------|			|-----14-----16-|
|-2h4-----------|-7h9-----7h9-| into prechorus  |---------------|
|---------------|-------------| repeats again   |---------------|
|---------------|-----999-----|	then->      |-777----999----|

The outro is just the chorus played over and over with the various endings. 
There are some little fills in there, if you really want them drop me a line 
and I'll tab them. dumbassLA@users.basstabarchive.com

Comments