Our Lady Peace - Are You Sad Chords & Tabs

 

Are You Sad Chords & Tabs

Our Lady Peace Chords & Tabs

Version: 1 Type: Tab 0 ratings
1 star 2 stars 3 stars 4 stars 5 stars
comments

Are You Sad Tab

Our Lady Peace - ARE YOU SAD (Spiritual Machines)
Tabbed by: Penky
Email: penkyismyhero@homtail.com
Tuning: Drop-D, 1/2 step down (Db-Ab-Db-Gb-Bb-eb) (All OLP songs are a half
step down, Drop-D isn't nessesary, but that is how the acoustic is played so
this makes it simpilar)

"Are You Sad" is a great song by Our Lady Peace, then again ALL their songs are
awesome.  Nobody had the electric lead riff tabbed correctly, so i figured it out.
This is accurate, i am positive. Play along to the song and you'll get it in no time.
Enjoy!

This is Guitar 1 (Electric played by Mike Turner), the Acoustic (played by Raine) is below
INTRO
eb-----------------------------------------------------------------| 
Bb-----------------------------------------------------------------| 
Gb-11~~~~(11)~~~--12--11--9/7--2~--2h4p2--------6/7~~---6/7--9-----|
Db-----------------------------------------------------------------|
Ab-----------------------------------------------------------------|
Db------------------------------------------0~--------0~-----------|

eb-------------------------| 
Bb-------------------------| 
Gb-12--11--9/7--2~--2h4p2--|
Db-------------------------|
Ab-------------------------|
Db-------------------------|

VERSE
eb--------------------| 
Bb--------------------| Timing not shown, repeat twice
Gb--------------------|
Db--0----5----2----5--|
Ab--0----5----2----5--|
Db--0----5----2----5--|

eb--------| 
Bb--------| This is the part where Raine sings "Fade... Away..."
Gb--7-----| Just repeat this twice
Db--7--5--|					  eb-0------|			
Ab--5--5--|					  Gb-5------|
Db-----5--|					  Db-5------|
						  Ab-3------|
When Raine sing "So just stop pretending..." Play Db--------| very slowly and hold

CHORUS (once again, timing or strumming not shown)
eb--------------------------------| 
Bb--------------------------------| 
Gb--------------------------------| repeat twice
Db--0----5----2----10----9----10--|
Ab--0----5----2----10----9----10--|
Db--0----5----2----10----9----10--|

PRE-VERSE
Eb---------------------------------0---------------------------|
Bb---------------------------------10--------------------------|
Gb-7---6h7-7p6-7-x-7-------6h7-9---9----12--11--9/7--2~--2h4p2-|
Db-7---7---7---7-x-7-------7---7---0---------------------------|
Ab-5---5---5---5-x-5-------5---5---0---------------------------|
Db-0---0---0---0-x-0---0~--0---0---0---------------------------|

2ND Verse same as the first but more strumming

For the bridge (Oh Oh Ooooh, oh oh oooh), just play the same as the verse
Then again for the outro
[ Tab from: http://www.guitartabs.cc/tabs/o/our_lady_peace/are_you_sad_tab.html ]
And thats it! Pretty easy, just listen to the song and you'll get it.
Peace
--------------------------------------------------------------------------
Here is the acoustic parts, played my Raine. 

INTRO
eb|---------------------------------0---------------------------------------|
Bb|------------------------------10-10--8--8--8-8---8--8--8-8---8--8--8--8--|
Gb|-----6s7-7s6--6------6s7-7-7--9--0---7--7--7-7---7--7--7-7---7--7--7--7--| 
Db|--0--0---0-0--0--0---0---0-0--0--0---5--5--5-5---5--5--5-5---5--5--5--5--|
Ab|--0--0---0-0--0--0---0---0-0--0--0---5--5--5-5---5--5--5-5---5--5--5--5--|
Db|--0--0---0-0--0--0---0---0-0--0--0---5--5--5-5---5--5--5-5---5--5--5--5--|

VERSE
eb|--------0--0-------------------------------------------------|
Bb|-----3--3--3--0--0--0--0--0--0--0--0-------------------------|
Gb|-----2--2--2--0--0--0--0--0--0--0--0--0--0--0--0-------------| 2x
Db|--0--0--0--0--5--5--5--5--2--2--2--2--5--5--5--5-------------|
Ab|--0--0--0--0--5--5--5--5--2--2--2--2--3--3--3--3-------------|
Db|--0--0--0--0--5--5--5--5--2--2--2--2--5--5--5--5-------------|

eb|-----------------------0--0--------------------0--0--|
Bb|-----------------3--3--3--3--------------3--3--3--3--|
Gb|----7--7--7--7---0--0--0--0--7--7--7--7--0--0--0--0--|
Db|----7--7--7--7---5--5--5--5--7--7--7--7--5--5--5--5--|
Ab|----5--5--5--5---5--5--5--5--5--5--5--5--5--5--5--5--|
Db|-----------------5--5--5--5--------------5--5--5--5--|
       fade         away
PRE CHORUS
eb|------0------------------------------------------|
Bb|-----0-------------------------------------------|
Gb|----5--------------------------------------------|
Db|---5---------------------------------------------|
Ab|--3----------------------------------------------|
Db|-------------------------------------------------|
   just stop pretending when they say you're nothing...

CHORUS
eb|----------------------------------------------------------------|
Bb|--------------0--0--0--0--0--0--0--0--0--0--0--8----------------|
Gb|--------------0--0--0--0--0--0--0--0--0--0--0--0----------------|
Db|--0--0--0--0--5--5--2--2--10-10-9--9--9--9--10-10---------------|  x2
Ab|--0--0--0--0--5--5--2--2--10-10-9--9--9--9--10-10---------------|
Db|--0--0--0--0--5--5--2--2--10-10-9--9--9--9--10-10---------------|
  are you sad, are you holding yourself, are you locked in your room,
  you shouldn't be...

Then play the intro again, the verse, pre-verse, and chorus.
The bridge is the same as the verse, and so is the outro.

thats all!!
Questions, comments, phone numbers? 
E-mail me at penkyismyhero@hotmail.com
Comments