Our Lady Peace - Annie Chords & Tabs

 

Annie Chords & Tabs

Our Lady Peace Chords & Tabs

Version: 1 Type: Tab 0 ratings
1 star 2 stars 3 stars 4 stars 5 stars
comments

Annie Tab

   
##################################################################################
# This file is the author's own work and represents their interpretation of the  #
# song. You may only use this file for private study, scholarship, or research.  #
##################################################################################

-====================-
Our Lady Peace - Annie
-====================-

Song:         Annie
Band:         Our Lady Peace
Tabbed By:      Clayton Botha
E-Mail:        theno69@hotmail.com

Great song, not so known though! NB dont forget to tune down 1/2 a step to
D# G# C# F# A# D#

INTRO: C x8
-=========-                                    C#       Bm           
e|---------------------------------------------4-4-4-4--------------7-7--|
B|----10---8----------------10---8-------------6-6-6-6----------7-7-7-7--|
G|---------------------------------------------6-6-6-6------7-7-7-7-7-7--|
D|-/7----5---4-0~~~~~~---/7----5---4-0~~~~~~---6-6-6-6--9-9-9-9-9-9------|
A|---------------------------------------------4-4-4-4--9-9-9-9----------|
E|---------------------------------------------4-4-4-4--7-7--------------|

      Noooooo      Noooooo      Noooooo

VERSE-1: D A x2
-=============-      D         A        C#       Bm
e|-----------------------------------||-4-4-4-4--------------7-7--|
B|-----------8/10\8------------------||-6-6-6-6----------7-7-7-7--|
G|-4-/-7-x-x---------7-7-7-x-x-------||-6-6-6-6------7-7-7-7-7-7--|
D|-4-/-7-x-x---------7-7-7-x-x-7-7-7-||-6-6-6-6--9-9-9-9-9-9------|
A|-2-/-5-x-x---------5-5-5-x-x-7-7-7-||-4-4-4-4--9-9-9-9----------|
E|-------------------------x-x-5-5-5-||-4-4-4-4--7-7--------------|

CHORUS:
-=====-
     D   C   B   A   C   B   A   A
e|-----------------------------------|
B|-----------------------------------|
G|---7---5-----------5---------------|
D|---7---5---9---7---5---9---7---7---|
A|---5---3---9---7---3---9---7---7---|
E|-----------7---5-------7---5---5---|

[ Tab from: http://www.guitartabs.cc/tabs/o/our_lady_peace/annie_tab.html ]
Repeat INTRO:
-===========-                                  C#       Bm           
e|---------------------------------------------4-4-4-4--------------7-7--|
B|----10---8----------------10---8-------------6-6-6-6----------7-7-7-7--|
G|---------------------------------------------6-6-6-6------7-7-7-7-7-7--|
D|-/7----5---4-0~~~~~~---/7----5---4-0~~~~~~---6-6-6-6--9-9-9-9-9-9------|
A|---------------------------------------------4-4-4-4--9-9-9-9----------|
E|---------------------------------------------4-4-4-4--7-7--------------|

      Noooooo      Noooooo      Noooooo

VERSE-2: D A x2
-=============-      D         A        C#       Bm
e|-----------------------------------||-4-4-4-4--------------7-7--|
B|-----------8/10\8------------------||-6-6-6-6----------7-7-7-7--|
G|-4-/-7-x-x---------7-7-7-x-x-------||-6-6-6-6------7-7-7-7-7-7--|
D|-4-/-7-x-x---------7-7-7-x-x-7-7-7-||-6-6-6-6--9-9-9-9-9-9------|
A|-2-/-5-x-x---------5-5-5-x-x-7-7-7-||-4-4-4-4--9-9-9-9----------|
E|-------------------------x-x-5-5-5-||-4-4-4-4--7-7--------------|


Repeat CHORUS:
-============-

BRIDGE: Repeat x4
-===============-
     E   B   B#   A
e|--------------------|
B|--------------------|
G|---9----------------|
D|---9---9---10---7---|
A|---7---9---10---7---|
E|-------7----8---5---|

E         B         B#        A
oh-oh-oh  oh-oh-oh  oh-oh-oh  oh-oh-oh

SOLO:
-===-
e|-------------------------------------3/17-|
B|---6----6---6---5---5h6p5---3---3--3------|
G|-7----7----7--5---5-------4---4---4-------|
D|------------------------------------------|
A|------------------------------------------|
E|------------------------------------------|

e|------------------------------------3-5-3-5/10-10-10-|
B|-----5---5-------3-3h5p3--------3--------------------|
G|-3/5---5---5-2/4---------2-2--2---2------------------|
D|-----------------------------------------------------|
A|-----------------------------------------------------|
E|-----------------------------------------------------|

Repeat CHORUS Until End
-=====================-
Comments