Our Lady Peace - All For You Chords & Tabs

 

All For You Chords & Tabs

Our Lady Peace Chords & Tabs

Version: 1 Type: Bass Tab 0 ratings
1 star 2 stars 3 stars 4 stars 5 stars
comments

All For You Bass Tab

OLP
All For You
Tuning: Drop D and everything dropped a half step (Gb Db Ab Db)
Tabbed by: Summer Young (vivid11@hotmail.com)


*For the intro and chorus I just have the basic notes here. But if you 
listen to the song, Duncan plays around a bit. You can get away with just 
playing this, so I'm not going to add any of that here.

Intro

Gb|--------------------------------------------------------|
Db|--------------------------------------------------------|
Ab|--------------------------------------------------------|
Db|--0-0--0-0--0-3--3-3--3-3-3--7-7--7-7--7-5--5-5--5-5-5--|


*It almost sounds as if the bass is playing the 16th notes, but it's just 
the guitar and drums. I have this section set up in measures so you can 
follow the rhythm more easily cause the first couple times you play it, it's 
kinda weird to follow.

Verse
[ Tab from: http://www.guitartabs.cc/tabs/o/our_lady_peace/all_for_you_btab.html ]
Gb|-------------|------------|------------|------------|
Db|-------------|------------|------------|------------|
Ab|-------------|------------|------------|------------|
Db|--7--7-------|-------7--7-|-10---------|------------|
let ring-------------->
1 2 3 4 1 2 3 4 1 2 3 4 1 2 3 4


Chorus: Same as intro


Bridge

Gb|-------------|
Db|-------------| 2x
Ab|-------------|
Db|--0-0---0-0--|

Then:

*This is the only hard part of the whole song. It'll probably take you a 
little while to get it, so don't get frustrated. You should be able to get 
it if you just keep playing it. Also, if you don't play the open Db's it 
will make it a little easier. I'm pretty sure Duncan plays those but you'll 
be okay if you don't.

Gb|-------------------------------------|
Db|-------------------------------------| repeat once except the slide
Ab|----------2---3-----2---3-----2---3--|
Db|-10\--2-3---0---3-2---0---2-3---0----|


2nd bridge: bass doesn't play
Comments