Our Lady Peace - 4am Chords & Tabs

 

4am Chords & Tabs

Our Lady Peace Chords & Tabs

Version: 1 Type: Tab 1 rating
1 star 2 stars 3 stars 4 stars 5 stars
comments

4am Tab

   
#----------------------------------PLEASE NOTE---------------------------------#
#This file is the author's own work and represents their interpretation of the #
#song. You may only use this file for private study, scholarship, or research. #
#------------------------------------------------------------------------------#

Date: Fri, 23 Jan 1998 23:50:14 -0400
From: Matt Corkum 
Subject: 4am by Our Lady Peace

Our Lady Peace-"4 am" from the album Clumsy

Tune down 1/2 step. Eb Ab Db Gb Bb Eb


Intro: (Relative chords with actual chords in parenteses)

     C#m (Cm)            Asus2(G#sus2) A(G#)  
eb|--------4-4-4-4-------0-0-0-0-------0-0-0-0--|
Bb|--5-5-5-5-5-5-5-5-5-5-0-0-0-0-0-2---2-2-2-2--|
Gb|--6-6-6-6-6-6-6-6-6-6-2-2-2-2-----2-2-2-2-2--|
Db|--6-6-6-6-6-6-6-6-6-6-2-2-2-2-------2-2-2-2--|
Ab|--4-4-4-4-4-4-4-4-4-4-0-0-0-0-------0-0-0-0--|
Eb|---------------------------------------------|
     

     F# (F)              A (G#)
eb|------2-2-2-2-------------5-5-5-5----------|
Bb|------2-2-2-2-2---2-2-----5-5-5-5-5---5-5--|
Gb|----3-3-3-3-3-3-3-3-3---6-6-6-6-6-6-6-6-6--|
Db|--4-4-4-4-4-4-4-4-4-4-7-7-7-7-7-7-7-7-7-7--|
Ab|--4-4-4-4-4-4-4-4-4-4-7-7-7-7-7-7-7-7-7-7--|
Eb|--2-2-2-2-2-2-2-2-2-2-5-5-5-5-5-5-5-5-5-5--|
   

    E (D#)     A (G#)    Bsus2 (A#sus2)
eb|------0-0-0-----0-0-0-----0-0-0-0-0-0-0-0--|
Bb|------0-0-0-----2-2-2-----0-0-0-0-0-0-0-0--|
Gb|----1-1-1-1-2-2-2-2-2-4-4-4-4-4-4-4-4-4-4--|
Db|--2-2-2-2-2-2-2-2-2-2-4-4-4-4-4-4-4-4-4-4--|
Ab|--2-2-2-2-2-0-0-0-0-0-2-2-2-2-2-2-2-2-2-2--|
Eb|--0-0-0-0-0--------------------------------|
   

     D (C#)  C#m(Cm) B(A#)
eb|----5------------------------------|
Bb|----7-7-------5-5-------4-4-4------|
Gb|--7-7-7-7-6-6-6-6-4-4-4-4-4-4-4-4--|
Db|--7-7-7-7-6-6-6-6-4-4-4-4-4-4-4-4--|
Ab|--5-5-5-5-4-4-4-4-2-2-2-2-2-2-2-2--|
Eb|-----------------------------------|
   


(Intro: C#m    Asus2 A     C#m    Asus2 A

Chorus

and I hope to God I figure out what's  wrong....
|----------------------------------0-|
|----------------------------------0-|
|-4-4--4-4--4-4-4-4-4-4-4-4-4-4----x-|
|-4-4--4-4--4-4-4-4-4-4-4-4-4-4--x-2-|
|-2-2--2-2--2-2-2-2-2-2-2-2-2-2--x-2-|
|--------------------------------x-0-|

Solo/Bridge:

 guitar1              |===B===|       |===B===|
|----------------------------------------------------------------7--------|
|-------------------------------------------------------------------------|
|-9-11p9-11/13-13--13-13-14-13-13--13-13-14-13-11h13-11\9-9-9--9---9-9-9--|
|-------------------------------------------------------------------------|
|-------------------------------------------------------------------------|
|-------------------------------------------------------------------------|
|                                                                         |
|guitar2                                                                  |
|-------------------------------------------------------------------------|
|-------------------------------------------------------------------------|
|---------9\7--7--7--x--7\6--6--6--x--6/7--7\---2---2---2---2--2----------|
|--------------------x-------------x------------2---2---2---2--2--2--2--2-|
|---------7\5--5--5--x--5\4--4--4--x--4/5--5\---0---0---0---0--0--2--2--2-|
|-----------------------------------------------------------------0--0--0-|
[ Tab from: http://www.guitartabs.cc/tabs/o/our_lady_peace/4am_tab.html ]
 guitar1                |===B===|       |===B===|
|------------------------------------------------------------------7--------|
|---------------------------------------------------------------------------|
|-9-9-11p9-11/13-13--13-13-14-13-13--13-13-14-13-11h13-11\9-9-9--9---9-9-9--|
|---------------------------------------------------------------------------|
|---------------------------------------------------------------------------|
|---------------------------------------------------------------------------|
|                                                                           |
|guitar2                                                                    |
|---------------------------------------------------------------------------|
|---------------------------------------------------------------------------|
|-----------7/9--9--9\--x--4---4--4--4--4/7--7-6--2---2---2---2--2----------|
|-----------------------x-------------------------2---2---2---2--2--2--2--2-|
|-----------5/7--7--7\--x--2---2--2--2--2/5--5-4--0---0---0---0--0--2--2--2-|
|-------------------------------------------------------------------0--0--0-|   

 guitar1              |===B===|
|-------------------------------------------------------------------7-----7----|
|------------------------------------------------------------------------------|
|-9-11p9-11/13-13--13-13-14-13-13-13--13-14p13p11-11h13-11\9-9-9--9---9-9---9-9|
|------------------------------------------------------------------------------|
|------------------------------------------------------------------------------|
|------------------------------------------------------------------------------|
|                                                                              |
|guitar2                                                                       |
|------------------------------------------------------------------------------|
|------------------------------------------------------------------------------|
|---------9\7--7--7--x--7\6--6--6--x--6/7--7\---2---2---2---2--2---------------|
|--------------------x-------------x------------2---2---2---2--2--2--2--2------|
|---------7\5--5--5--x--5\4--4--4--x--4/5--5\---0---0---0---0--0--2--2--2------|
|-----------------------------------------------------------------0--0--0------|

 guitar1               |===B===|
|-------------------------------------|
|-------------------------------------|
|-9-11p9-11/13-13--13-13-14-13-13-13--|
|-------------------------------------|
|-------------------------------------|
|-------------------------------------|
|                                                                         
|guitar2                                                                  |
|--------------------------------------|
|--------------------------------------|
|-----------7/9--9--9\--x--4---4--4--4-|
|-----------------------x--------------|
|-----------5/7--7--7\--x--2---2--2--2-|
|--------------------------------------|

guitar1
|-------------------------------7-----7-----7---7---|
|---------------------------------------------------|
|-13-14p13p11-11h13-11\9-9-9--9---9-9---9-9---9---9-|
|---------------------------------------------------|
|---------------------------------------------------|
|---------------------------------------------------|
|guitar2
|-------------------------------------------------|
|-------------------------------------------------|
|-4/7--7-6--2---2---2---2--2----------------------|
|-----------2---2---2---2--2--2--2--2-------------|
|-2/5--5-4--0---0---0---0--0--2--2--2-------------|
|-----------------------------0--0--0-------------|
Comments