Our Lady Peace - 4 Am Chords & Tabs

 

4 Am Chords & Tabs

Our Lady Peace Chords & Tabs

Version: 2 Type: Tab 0 ratings
1 star 2 stars 3 stars 4 stars 5 stars
comments

4 Am Tab

---------------------------------------------------------------------------                    
                            4 AM  -  Our Lady Peace
----------------------------------------------------------------------------

ok dudes and dudettes, this is how it goes. buy it or not... here it is an I hope you
enjoy.  (this is my first actual tab so... go easy on me.. unfortunately... solo's
aren't really my cup'a'tea if you catch my drift. Hope it all works well..  OUR LADY
PEACE RULES
\\Tabbed By Shilo Zaba
\\Email--- zabashilo@hotmail.com

Tuning= Standard

(^= UpStrum)

INTRO:
e|-----00-^0-0-^0-0--|--^0-0-^0---00-^0-0-^0-0--|-^0-0-^0---|
B|-----00-^0-0-^0-0--|--^0-0-^0---00-^0-0-^0-0--|-^0-0-^0---|
G|-----66-^6-6-^6-6--|--^6-6-^6---22-^2-2-^2-2--|-^2-2-^2---|
D|-----66-^6-6-^6-6--|--^6-6-^6---22-^2-2-^2-2--|-^2-2-^2---|
A|-----44-^4-4-^4-4--|--^4-4-^4---00-^0-0-^0-0--|-^0-0-^0---|
E|-------------------|------------00-^0-0-^0-0--|-^0-0-^0---|

repeat once....

VERSE 1:
e|-----0--0-------^0-0-^0--0----^0--------------|
B|-----0--0-------^0-0-^0--0----^0--------------|
G|-----6--6-------^6-6-^6--6----^6--------------|
D|-----6--6-------^6-6-^6--6----^6--------------|
A|-----4--4-------^4-4-^4--4----^4--------------|
E|----------------------------------------------|
        I walked around my good in...
e|-----0--------0--^0--0-----^0---0----^0-------|
B|-----0--------0--^0--0-----^0---0----^0-------|
G|-----2--------2--^2--2-----^2---2----^2-------|
D|-----2--------2--^2--2-----^2---2----^2-------|
A|-----0--------0--^0--0-----^0---0----^0-------|
E|-----0--------0--^0--0-----^0---0----^0-------|
    ...tentions    and found that there were... 
e|-0---0-^0-0-----^0--0-^0---0--^0-0--^0--------|
B|-0---0-^0-0-----^0--0-^0---0--^0-0--^0--------|
G|-6---6-^6-6-----^6--6-^6---6--^6-6--^6--------|
D|-6---6-^6-6-----^6--6-^6---6--^6-6--^6--------|
A|-4---4-^4-4-----^4--4-^4---4--^4-4--^4--------|
E|----------------------------------------------|
 ..none   I blamed my father for       the..
e|-----0--0--^0---0-----^0-0----^0-0---^0-------|
B|-----0--0--^0---0-----^0-0----^0-0---^0-------|
G|-----2--2--^2---2-----^2-2----^2-2---^2-------|
D|-----2--2--^2---2-----^2-2----^2-2---^2-------|
A|-----0--0--^0---0-----^0-0----^0-0---^0-------|
E|-----0--0--^0---0-----^0-0----^0-0---^0-------|
    ...wast -ed   years         we hardly...
e|--0-----0--^0--0-----^0------0----^0-0-^0-0---|
B|--0-----0--^0--0-----^0------0----^0-0-^0-0---|
G|--6-----6--^6--6-----^6------6----^6-6-^6-6---|
D|--6-----6--^6--6-----^6------6----^6-6-^6-6---|
A|--4-----4--^4--4-----^4------4----^4-4-^4-4---|
E|----------------------------------------------|
  ..talked   I   never thought that I'd     for..
e|--0---0----0----^0-0-^0-0---|
B|--0---0----0----^0-0-^0-0---|
G|--2---2----2----^2-2-^2-2---|
D|--2---2----2----^2-2-^2-2---|
A|--0---0----0----^0-0-^0-0---|
E|--0---0----0----^0-0-^0-0---|
  ..get this hate              

PRE-CHORUS:
[ Tab from: http://www.guitartabs.cc/tabs/o/our_lady_peace/4_am_tab_ver_2.html ]
e|--^0----0---0-----0----0----^0--0--^0--0----^0------0-----0^00^00000--|
B|--^0----0---0-----0----0----^0--0--^0--0----^0------0-----0^00^00000--|
G|--^2----2---3-----3----3----^3--3--^3--3----^3------2-----2^22^22222--|
D|--^2----2---4-----4----4----^4--4--^4--4----^4------0-----0^00^00000--|
A|--^0----0---4-----4----4----^4--4--^4--4----^4------0-----0^00^00000--|
E|--^0----0-------------------------------------------0-----0^00^00000--|
     Then a   phone call made me re- a-  lize I'm    wrong

CHORUS:

e|-^0---0--^0--0------0----0--^0--0-----0---^0-0-^0---0-----^0--0--^0---|
B|-^0---0--^0--0------0----0--^0--0-----0---^0-0-^0---0-----^0--0--^0---|
G|-^2---1--^1--1------2----2--^2--4-----4---^4-4-^4---4-----^4--4--^4---|
D|-^0---2--^2--2------2----2--^2--4-----4---^4-4-^4---4-----^4--4--^4---|
A|-^0---2--^2--2------0----0--^0--2-----2---^2-2-^2---2-----^2--2--^2---|
E|-^0---0--^0--0------0----0- ^0----------------------------------------|
   and  if  I  don't  make it     known that     I've loved you all a-..
e|--0----^0----0----0-^0---0----0---^0-0--^0--0--0----^0----------------|
B|--0----^0----0----0-^0---0----0---^0-0--^0--0--0----^0----------------|
G|--1----^1----1----2-^2---4----4---^4-4--^4--4--4----^4----------------|
D|--2----^2----2----2-^2---4----4---^4-4--^4--4--4----^4----------------|
A|--2----^2----2----0-^0---2----2---^2-2--^2--2--2----^2----------------|
E|--0----^0----0----0-^0------------------------------------------------|
  ..long  Just like sunny  days that      we  ignore  be-...
e|---0-----^0----0----0----0--^0--0--0-----^0-0-^0---0-0----------------|
B|---0-----^0----0----0----0--^0--0--0-----^0-0-^0---0-0----------------|
G|---1-----^1----1----2----2--^2--4--4-----^4-4-^4---4-4----------------|
D|---2-----^2----2----2----2--^2--4--4-----^4-4-^4---4-4----------------|
A|---2-----^2----2----0----0--^0--2--2-----^2-2-^2---2-2----------------|
E|---0-----^0----0----0----0--^0----------------------------------------|
  ...cause we're all  dumb and    ja-ded            and I
e|--0------0---^0----0------0---^0------0-----0-^0-0-^0-0-^0-0-^0-------|
B|--0------0---^0----0------0---^0------0-----0-^0-0-^0-0-^0-0-^0-------|
G|--7------7---^7----6------6---^6------4-----4-^4-4-^4-4-^4-4-^4-------|
D|--7------7---^7----6------6---^6------4-----4-^4-4-^4-4-^4-4-^4-------|
A|--5------5---^5----4------4---^4------2-----2-^2-2-^2-2-^2-2-^2-------|
E|----------------------------------------------------------------------|
   hope to god  I    figure out  what's wrong


Repeat intro once...

VERSE 2 (PLAYED EXACTLY THE SAME) :

I walked around my room not thinking
Just sinking in this box
I blamed myself for being too much
Like somebody else
I never thought I could just bend this way
Then a phone call made me realize I'm wrong...

Repeat Chorus X(2).....

ENDING:

e|--0------0---^0----0------0-------------------------------------------|
B|--0------0---^0----0------0-------------------------------------------|
G|--7------7---^7----6------6-------------------------------------------|
D|--7------7---^7----6------6-------------------------------------------|
A|--5------5---^5----4------4-------------------------------------------|
E|----------------------------------------------------------------------|
   hope to god  I    figure out..


I hope to god everybody likes this taaaaab! lol. anyhoo, thats how it should be played
and I hope y'all get a kick outta it.
SUBMITTED AND TABBED BY SHILO ZABA.
Email= zabashilo@otmail.com
Comments