Our Lady Peace - 4 Am Chords & Tabs

 

4 Am Chords & Tabs

Our Lady Peace Chords & Tabs

Version: 1 Type: Tab 0 ratings
1 star 2 stars 3 stars 4 stars 5 stars
comments

4 Am Tab

   
4 am
Artist: Our Lady Peace
Album: Clumsy


Tune down 1/2 step Eb Ab Db Gb Bb Eb


Intro: C#m   A   C#m   A

C#m                       A                                  C#m
I walked around my good intentions and found that there were none

                          A                       C#m
I blame my father for the wasted years, we hardly talked

                           A
I never thought I would forget this hate

       F#                             A
then a phone call made me realize I'm wrong

    E          A       B
And if I don't make it known that I've loved you all along

E         A     B
just like sunny days that we ignore because 

E         A      B
we're all dumb & jaded

      D             C#m               B
and I hope to God I figure out what's wrong

C#m                         A                              C#m
I walked around my room not thinking, just sinking in this box

                         A                      C#m
I blame myself for being too much like somebody else 

                             A
I never thought I would just bend this way

       F#                             A
then a phone call made me realize I'm wrong

And if I don't make it known that I've loved you all along
just like sunny days that we ignore because 
we're all dumb & jaded
and I hope to God I figure out what's

  wrong....
|----------------------------------0-|
|----------------------------------0-|
|-4-4--4-4--4-4-4-4-4-4-4-4-4-4----x-|
|-4-4--4-4--4-4-4-4-4-4-4-4-4-4--x-2-|
|-2-2--2-2--2-2-2-2-2-2-2-2-2-2--x-2-|
|--------------------------------x-0-|

 guitar1              |===B===|       |===B===|
|----------------------------------------------------------------7--------|
|-------------------------------------------------------------------------|
|-9-11p9-11/13-13--13-13-14-13-13--13-13-14-13-11h13-11\9-9-9--9---9-9-9--|
|-------------------------------------------------------------------------|
|-------------------------------------------------------------------------|
|-------------------------------------------------------------------------|
|                                                                         |
|guitar2                                                                  |
|-------------------------------------------------------------------------|
|-------------------------------------------------------------------------|
|---------9\7--7--7--x--7\6--6--6--x--6/7--7\---2---2---2---2--2----------|
|--------------------x-------------x------------2---2---2---2--2--2--2--2-|
|---------7\5--5--5--x--5\4--4--4--x--4/5--5\---0---0---0---0--0--2--2--2-|
|-----------------------------------------------------------------0--0--0-|
[ Tab from: http://www.guitartabs.cc/tabs/o/our_lady_peace/4_am_tab.html ]
 guitar1                |===B===|       |===B===|
|------------------------------------------------------------------7--------|
|---------------------------------------------------------------------------|
|-9-9-11p9-11/13-13--13-13-14-13-13--13-13-14-13-11h13-11\9-9-9--9---9-9-9--|
|---------------------------------------------------------------------------|
|---------------------------------------------------------------------------|
|---------------------------------------------------------------------------|
|                                                                           |
|guitar2                                                                    |
|---------------------------------------------------------------------------|
|---------------------------------------------------------------------------|
|-----------7/9--9--9\--x--4---4--4--4--4/7--7-6--2---2---2---2--2----------|
|-----------------------x-------------------------2---2---2---2--2--2--2--2-|
|-----------5/7--7--7\--x--2---2--2--2--2/5--5-4--0---0---0---0--0--2--2--2-|
|-------------------------------------------------------------------0--0--0-|

 guitar1              |===B===|
|-------------------------------------------------------------------7-----7-----|
|-------------------------------------------------------------------------------|
|-9-11p9-11/13-13--13-13-14-13-13-13--13-14p13p11-11h13-11\9-9-9--9---9-9---9-9-|
|-------------------------------------------------------------------------------|
|-------------------------------------------------------------------------------|
|-------------------------------------------------------------------------------|
|                                                                               |
|guitar2                                                                        |
|-------------------------------------------------------------------------------|
|-------------------------------------------------------------------------------|
|---------9\7--7--7--x--7\6--6--6--x--6/7--7\---2---2---2---2--2----------------|
|--------------------x-------------x------------2---2---2---2--2--2--2--2-------|
|---------7\5--5--5--x--5\4--4--4--x--4/5--5\---0---0---0---0--0--2--2--2-------|
|-----------------------------------------------------------------0--0--0-------|

 guitar1               |===B===|
|-------------------------------------------------------------------7-----7-----7---7---|
|---------------------------------------------------------------------------------------|
|-9-11p9-11/13-13--13-13-14-13-13-13--13-14p13p11-11h13-11\9-9-9--9---9-9---9-9---9---9-|
|---------------------------------------------------------------------------------------|
|---------------------------------------------------------------------------------------|
|---------------------------------------------------------------------------------------|
|                                                                                       |
|guitar2                                                                                |
|---------------------------------------------------------------------------------------|
|---------------------------------------------------------------------------------------|
|-----------7/9--9--9\--x--4---4--4--4--4/7--7-6--2---2---2---2--2----------------------|
|-----------------------x-------------------------2---2---2---2--2--2--2--2-------------|
|-----------5/7--7--7\--x--2---2--2--2--2/5--5-4--0---0---0---0--0--2--2--2-------------|
|-------------------------------------------------------------------0--0--0-------------|

and I hope to God I figure out what's wrong
I hope to God I figure out what's wrong

If I don't make it known that I've loved you all along
just like sunny days that we ignore because 
we're all dumb & jaded
and I hope to God I figure out what's wrong

And if I don't make it known that I've loved you all along
just like sunny days that we ignore because 
we're all dumb & jaded
and I hope to God I figure out

--------------------------------------------------------------------------------------
KEY:

/=slide up   \=slide down   x=mute string

  |---b---|=bend
|----------|
|----------|
|-12-14-12-|
|----------|
|----------|
|----------|

In this example you would play the G, bend up one whole step to A then 
release bend to sound G again. Only the first note is picked.

---------------------------------------------------------------------------------------

It's probably a good idea to listen to the CD and play along with the song 
to get a feel for it and get all the timing and stuff right :)

---------------------------------------------------------------------------------------
Comments