Our Lady Peace - 4 Am Chords & Tabs

 

4 Am Chords & Tabs

Our Lady Peace Chords & Tabs

Version: 1 Type: Bass Tab 0 ratings
1 star 2 stars 3 stars 4 stars 5 stars
comments

4 Am Bass Tab

   
4am
Our Lady Peace: Clumsy
Tabbed by Scott Grant (kaputsk@geocities.com)

Tune down half a step!  (Eb Ab Db Gb)

If I don't make it..
--------------------

Eb --0----5---/7--------0----5---/7-------\0----5---/7--------10---9----7--


I walked around..
-----------------
[ Tab from: http://www.guitartabs.cc/tabs/o/our_lady_peace/4_am_btab.html ]
Ab --4---/12--\0----4---------0---0-2--4---/12/16--\12--\0-------
Eb ---------------------2--4-------------------------------------


If I don't make it.. (2)
--------------------

Eb --0----5---/7---7-5-7---7-5-7--  x3

Eb --10--10--9--9--7--7--7-7-7-7-7-7-7-7--

Instrumental
------------

Eb --0--0---12-10-10-10---10-9-9-9--9-10-10-9--5-5-5-5-5--

Eb --0--0---12-12-7--7--9---9-5-5--0-0--


And I hope to god..
-------------------

Eb --5--5--4--4--2--2/14\2--2/14--
Comments