Otium - Symbiosis Chords & Tabs

 

Symbiosis Chords & Tabs

Otium Chords & Tabs

Version: 1 Type: Tab 0 ratings
1 star 2 stars 3 stars 4 stars 5 stars
comments

Symbiosis Tab

   
----------------------------------------------------------------------------
			     SYMBIOSIS - Otium
----------------------------------------------------------------------------

Tabbed by: asiremajestic
Email: N/A

Tuning: Drop C (from low to high: C G C F A D )

These guys are an awesome Australian band that have just come onto the scene.  If you 
to check out their material, head over to http://www.mp3.com.au/Otium where you can 
this song.  Or, check out their website http://www.otiumweb.com.

Fairly easy song, click on your delay pedal and off you go!  I'm pretty sure their 
uses a BOSS delay pedal - possibly a DD-6??

Verse:

D|-------------------------------------------------------------------------|
A|-------------------------------------------------------------------------|
F|-----4-------7----------0-------2----------------------------------------|
C|-0-0----5p4----5p4---------5-5-----3~~-------------~---------------------|
G|--------------------5-5--------------------------------------------------|
C|-------------------------------------------------------------------------|

Chorus: ("Breathe, breathe for me..." part)

D|-------------------------------------------------------------------------|
A|-------------------------------------------------------------------------|
F|-------------------------------------------------------------------------|
C|----7-7-7----------------------------------------------------------------|
G|-5-----------------------------------------------------------------------|
C|-------------------------------------------------------------------------|
[ Tab from: http://www.guitartabs.cc/tabs/o/otium/symbiosis_tab.html ]
Breakdown/Middle 8:

D|-------------------------------------------------------------------------|
A|----------<7>------------------------------------------------------------|
F|------<5>----------------------------------------------------------------|
C|--<7>--------------------------------------------------------------------|
G|-------------------------------------------------------------------------|
C|-------------------------------------------------------------------------|

Bridge:

D|-------------------------------------------------------------------------|
A|-------------------------------------------------------------------------|
F|-----6-6-----------------------------------------------------------------|
C|-4-4----------6-6-6-6--------7-------------------------------------------|
G|----------4-4------------------------------------------------------------|
C|-----------------------5-5-----------------------------------------------|

Final part: w/ distortion and no delay (I haven't included the strumming pattern, only 
chords, so you'll have to listen to the song to work out the strumming!)

D|-------------------------------------------------------------------------|
A|-------------------------------------------------------------------------|
F|-------------------------------------------------------------------------|
C|-11---7---7--------------------------------------------------------------|
G|-9----5---5--------------------------------------------------------------|
C|-9----0---5--------------------------------------------------------------|

KEY:
| p  pull-off
| ~  vibrato
| <> natural harmonic

============================================================================
Comments