Otis Redding - Sitting On The Dock Of The Bay Chords & Tabs

 

Sitting On The Dock Of The Bay Chords & Tabs

Otis Redding Chords & Tabs

Version: 2 Type: Bass Tab 0 ratings
1 star 2 stars 3 stars 4 stars 5 stars
comments

Sitting On The Dock Of The Bay Bass Tab

   
-----------------------------------------------------------------------------
             SITTIN' ON THE DOCK OF THE BAY  -  OTIS REDDING
-----------------------------------------------------------------------------

Tabbed By :PBASSLOZER
e-mail: STEALSHOT337@AOL.COM

SRY, KINDA IN A HURRY. I CANT REMEMBER THE COUNTS.
YOU CAN FIGURE THEM OUT. YOURE SMART!

Tuning:STANDARD

INTRO/OUTRO
G|---------------------------------------------------------------------------|
D|---------------------------------------------------------------------------|
A|------5B-5B--------5B-5B---------------------------------------------------|
E|-3--3---------3--3---------------------------------------------------------|
[ Tab from: http://www.guitartabs.cc/tabs/o/otis_redding/sitting_on_the_dock_of_the_bay_btab_ver_2.html ]
VERSE
G|---------------------------------------------------------------------------|
D|---------------------------------------------------------------------------|
A|---------------------------------------------------------------------------|
E|-3-3-3-3/5/7~~~7-7-7-7-7/8~~~8-8-8/7/6/5-5-5-5-5---------------------------|

CHORUS
G|----------------------------------------------------------------------------|
D|----------------------------------------------------------------------------|
A|-----------7~7-7-7-7-10-10-10/9/8/7~7-7-7-----------------------------------|
E|-3-3-3/5/7-------------------------------0h3-3-3-3/4/5~5-5-5-5-0-0-0-0-0h3--|

INTERLUDE THINGY (LOOKS LIKE NOTHINS GONNA CHANGE....)
G|-----------------------------------------------------------------------------|
D|-----------------------------------------------------------------------------|
A|---3/5-5-3-3-3-3-(2X, 3RD TIME, DO THIS)>>>-3/5-5-3-3---------5~-------------|
E|-3~---------------------------------------3~----------3-3-1-1----------------|

REALLY GOOD OLD CLASSIC SONG, PLAY IT FOR YOUR GIRLFRIEND WHEN SHES DRUNK,
SHELL LOVE IT!

PEACE IN THA MIDDLE EAST

| /  slide up
| \  slide down
| h  hammer-on
| p  pull-off
| ~  vibrato
| +  harmonic
| x  Mute note
=============================================================================
Comments