Otis Redding - Ive Been Loving You Too Long Chords & Tabs

 

Ive Been Loving You Too Long Chords & Tabs

Otis Redding Chords & Tabs

Version: 1 Type: Tab 0 ratings
1 star 2 stars 3 stars 4 stars 5 stars
comments

Ive Been Loving You Too Long Tab

   
I've Been Loving You Too Long (To Stop Now)
Otis Redding 

          A
I've been loving you
E
     too long

|-------12-------------------------|
|----------------12-------12-------|
|--11^13----13^11----11^13----6----|
|-----------------------------7----|
|----------------------------------|
|----------------------------------|

A
  to stop now

E

|----------------------------------|
|----------------------------------|
|----------------------------------|
|---------------------4-6-7--------|
|---------------4-5-7--------------|
|---0-2-4-5-6-7--------------------|

           A
There were time
C#
  and you want to be free
   D
My love is growing stronger, 
F
as you become a heaven to me
A
Oh I've been loving you
E
 too long                                          (|--6^7---6^7--|
                                                    |--8^9---8^9--|
                                                    |-------------|
                                                    |-------------|
                                                    |-------------|
                                                    |-------------|)

A                      E
I dont wanna stop now, oh

[ Tab from: http://www.guitartabs.cc/tabs/o/otis_redding/ive_been_loving_you_too_long_tab.html ]
         A
With you my life,
E
Has been so wonderful
                                   (|-------12-------------------------|
                                    |----------------12-------12-------|
                                    |--11^13----13^11----11^13----6----|
                                    |-----------------------------7----|
                                    |----------------------------------|
                                    |----------------------------------|)


A
I can't stop now
E

|----------------------------------|
|----------------------------------|
|----------------------------------|
|---------------------4-6-7--------|
|---------------4-5-7--------------|
|---0-2-4-5-6-7--------------------|

           A
There were times
         C#
and your love is growing cold
D
My love is growing stronger
F
as our affair [affair] grows old
A
I've been loving you a 
E
 too long                                          (|--6^7---6^7--|
                                                    |--8^9---8^9--|
                                                    |-------------|
                                                    |-------------|
                                                    |-------------|
                                                    |-------------|)

A
to stop now
F
oh, oh, oh
|---------------------|
|---------------------|
|---------------------|
|---------------------|
|---------------------|
|-1-1-1-1-1-1-1-4-5-6-|

A#
I've been loving you 
F
a little bit too long
A#
I don't wanna stop now
F#
oh, oh, oh
    G#    A     A#     A   G#
Don't make me stop now
F#               etc, etc ........
No baby
                                            
I'm down on my knees Please, don't make me stop now
I love you, I love you,
I love you with all of my heart
And I can't stop now
Please, please, please, please don't make me stop now
I love you so ...
Comments