Otep - The Lord Is My Weapon Chords & Tabs

 

The Lord Is My Weapon Chords & Tabs

Otep Chords & Tabs

Version: 1 Type: Tab 0 ratings
1 star 2 stars 3 stars 4 stars 5 stars
comments

The Lord Is My Weapon Tab

Otep
"The lord is my weapon"
Tabbed by: Diego "changfoogibperez"(changfoo33@yahoo.com)
Drop D tunning with three full steps low to high (A#, F, A#, D#, G, C)


Verse (Main Riff)                                             (w/ wah)
----------------------------------                        ------------------
---------------------------------- at the end of the      ------------------
---------------------------------- fourth time before the --9-9-9-10-10-10--
---------------------------------- vocals comes in play   --9-9-9-10-10-10--
--6-6-0---6-6-0----7-7-7-8-8-888-- this-                  --7-7-7-8--8--8---
--6-6-0---6-6-0-------------------                        ------------------
pm.- - -   - - -      - - - - - ---

Second riff
----------------------------------
----------------------------------
------------------9-9-9-10-10-10--
--6-6-0---6-6-0---9-9-9-10-10-10--
--6-6-0---6-6-0---7-7-7-8--8--8---
--6-6-0---6-6-0-------------------

Then verse same as before
[ Tab from: http://www.guitartabs.cc/tabs/o/otep/the_lord_is_my_weapon_tab.html ]
Chorus:
--------------------------------------------------------------------
--------------------------------------------------------------------
--7-7-7-7-7-7-7-7-7-7-7-7-7-7-7-7-5-5-5-5-5-5-8-8-8-8-8-8-10-10-10--
--x-x-x-x-x-x-x-x-x-x-x-x-x-x-x-x-x-x-x-x-x-x-x-x-x-x-x-x-x--x--x---
--5-5-5-5-5-5-5-5-5-5-5-5-5-5-5-5-3-3-3-3-3-3-6-6-6-6-6-6-8--8--8---
--------------------------------------------------------------------

After playing the part below two times, comes this:
-----------------------------------------------------------
-----------------------------------------------------------
-------------------------5-5-5-5-5-5-8-8-8-8-8-8-10-10-10--
-------------------------x-x-x-x-x-x-x-x-x-x-x-x-x--x--x---
--6p0-0--0-6p0-0--0-0-0--3-3-3-3-3-3-6-6-6-6-6-6-8--8--8---
--6p0-0--0-6p0-0--0-0-0------------------------------------
pm.- - -  - - - -  - - -

Verse Again

Then Chorus

Bridge:
-----------------------------
-----------------------------
----------------------------- 
-----------------------------
-----------------------------
--6-6p0--6p0-6p0-0--6-6p0-0--

x4 
then this:

-----------------------------
-----------------------------
-----------------------------
-----------------------------
--6-6p0--6p0-6p0-0--6-6p0-0--
--6-6p0--6p0-6p0-0--6-6p0-0--

x4 
then this:

-----------------------------
-----------------------------
-----------------------------
-----------------------------
--1-1p0--1p0-1p0-0--1-1p0-0--
--1-1p0--1p0-1p0-0--1-1p0-0--
pm.- -

Then Chorus

Then Bridge as Outro

That's It.
Comments