Otep - The Lord Is My Weapon Chords & Tabs

 

The Lord Is My Weapon Chords & Tabs

Otep Chords & Tabs

Version: 1 Type: Bass Tab 0 ratings
1 star 2 stars 3 stars 4 stars 5 stars
comments

The Lord Is My Weapon Bass Tab

Band- Otep
Song- The Lord Is My Weapon

Pre-Verse x4 /////Guitar plays 4 measures before Bass starts//////
G-----------------------------------------------------------------|
D-----------------------------------------------------------------|
A------------------333-444----------------------------------------|
E----0-0-1--0-0-1-------------------------------------------------|

Main Verse x3 ///Slap the 1's and pop the 3's. Barre the chord.///
After you play that x3 then play the ending.//////////////////////
G------p3----------p3--------------|---p3--------p3---------------|
D------p3----------p3--------------|---p3--------p3-----ending----|
A----------------------------------|------------------------------|
E----1-----1-----1-----1-----------|------1-1-------1-1-----------|

Pre-Verse   x4
Main Verse  x3 (ending x1)

Little chord thingy////(those are 18's and 17's for all you dopes)
G-----18----------------------------------------------------------|
D-----17----------------------------------------------------------|
A-----------------------------------------------------------------|
E-----------------------------------------------------------------|

Main Verse  x3 (ending x1)

Chorus x1/////////////////////////////////////////////////////////
G-----------------------------------------------------------------|
D-----------------------------------------------------------------|
A-----------------------------------------------------------------|
E--6666-66-666--4444--6-7-6666-66-666-4444--6-7-1111-11-111--4444-|
[ Tab from: http://www.guitartabs.cc/tabs/o/otep/the_lord_is_my_weapon_btab.html ]
Chorus cont. x1///////////////////////////////////////////////////
G-----------------------------------------------------------------|
D-----------------------------------------------------------------|
A-----------------------------------------------------------------|
E--6-7-6666-66-666--4444--6-7-------------------------------------|

Pre-Verse   x3

G-----------------------------------------------------------------|
D-----------------------------------------------------------------|
A-----------------------------------------------------------------|
E----0-0-1--0-0-1-------------------------------------------------|

Verse        x3  (ending x1)
Verse        x3  (ending x1)
Chorus       x1

 This is played at the end of the chorus when the song 'Stutters'
G-----------------------------------------------------------------|
D---p4--p4--p4----------------------------------------------------|
A---p4--p4--p4----------------------------------------------------|
E-----------------------------------------------------------------|

               BURN IN THE.......... PIT!!!!!!!!!!!!!!!!!!!!!!!!!!!

Bridge      Pt. 1  x4           Pt. 2 x4 (when she yells BURN! loud)
G------------------------------|----------------------------------|
D------------------------------|----------------------------------|
A------------------------------|----------------------------------|
E----0-0-1--0-1--0-1--000-1----|----2-2-1--2-1--2-1--222-1--------|

Chorus             x1
Bridge  pt.1       x8
Bridge  pt.2       x6   (SAVE MEEEEEEEE! bit)

 Guitar plays for a few measures.................
Comments