Otep - My Confession Chords & Tabs

 

My Confession Chords & Tabs

Otep Chords & Tabs

Version: 1 Type: Tab 0 ratings
1 star 2 stars 3 stars 4 stars 5 stars
comments

My Confession Tab

Band- Otep
Song- My Confession

Intro/Verse:
--------------------------------------------------|
--------------------------------------------------|
--------------------------------------------------|
---------2-----------2-----------2-----2-1-2------|
------1-----1-----1-----1-----1-----1---------1---|
---0-----------0-----------0----------------------|

---------------------------------------|
---------------------------------------|
---------------------------------------|
-------2---2---2-------2---2---2-1/2---|
-----1---1---1---1---1---1-------------|
---0---------------0-------------------|

-------------------|
-------------------|
---x-3-4-3-x-3---|
-------------------|
-------------------|
-------------------|
[ Tab from: http://www.guitartabs.cc/tabs/o/otep/my_confession_tab.html ]
Chorus:
------------------------------------------------------|
------------------------------------------------------|
------------------------------------------------------|
---6-6-6-6-------6-6-6-6------6-6-6-6--------------|
---6-6-6-6--7----6-6-6-6--7----6-6-6-6--7-----6-7-6---|
---6-6-6-6-------6-6-6-6-------6-6-6-6----------------|

-------------------------------------------------|
-------------------------------------------------|
-------------------------------------------------|
---6-6-8-9-8-6-6-8-9-8-6-6-8-9-8-9-8-9-8---|
---6-6---------6-6---------6-6-------------------|
---6-6---------6-6---------6-6-------------------|

Bridge:
-------------------------------------------|
-------------------------------------------|
-----3-2-3-----3-1-0-----------------------|
-------------------------4-3-4-------------|
---1---------1---------1---------1-4-3-2---|
-------------------------------------------|

Bridge 2:
---------------------|-----------------------|
---------------------|-----------------------|
---------------------|-----------------------|
---6-6-6-6-7-7-7-7---|---0-0-2-2-2/6-6-6-6---|
---6-6-6-6-7-7-7-7---|---0-0-2-2-2/6-6-6-6---|
---6-6-6-6-7-7-7-7---|---0-0-2-2-2/6-6-6-6---|
Comments