Otep - Jonestown Tea Chords & Tabs

 

Jonestown Tea Chords & Tabs

Otep Chords & Tabs

Version: 1 Type: Bass Tab 0 ratings
1 star 2 stars 3 stars 4 stars 5 stars
comments

Jonestown Tea Bass Tab

   
Band- Otep
Song- Jonestown Tea

Intro and Verse.

G|--2---4---3---2~-|
D|0---0---0---0----|
A|-----------------|  [x3]
E|-----------------|

G|--2---4---7-7--5---555555-|
D|0---0---0-----------------|
A|--------------------------|
E|--------------------------|

Pre Chorus

G|-2---2---3---3---4---4---5---5---|
D|---2---2---2---2---2---2---2---2-|
A|---------------------------------|
E|---------------------------------|

G|-2-2-2-2--3-3-3-3--4-4-4-4--5-5-5-5-|
D|-2-2-2-2--3-3-3-3--4-4-4-4--5-5-5-5-|
A|------------------------------------|
E|------------------------------------|

Chorus
[ Tab from: http://www.guitartabs.cc/tabs/o/otep/jonestown_tea_btab.html ]
G|
D|----------13-13-13-13-------|
A|-------------------12-12-12-|
E|0-1//12---------------------|

Bridge [Heavy Part]

G|-----------------|
D|-----------------|
A|-----------------|
E|555555--0-00-5-0-|

G|-------------|
D|-------------|
A|-------------|
E|---1//5------|

G|---------------------------|
D|---------------------------|
A|---------------------------|
E|5-5-5--0-0-0--5-5-5--0-0-0-|

G|-----------------------|
D|--------------------6--|
A|-----------------------|
E|-0-0-0-0--0-0-0-0------|

Bridge [Softer part]

G|--3---5---6---7---8---9---8--7----|
D|0---0---0---0---0---0---0---0---0-|
A|----------------------------------|
E|----------------------------------|
Comments