Otep - Filthee Chords & Tabs

 

Filthee Chords & Tabs

Otep Chords & Tabs

Version: 2 Type: Tab 0 ratings
1 star 2 stars 3 stars 4 stars 5 stars
comments

Filthee Tab

Band- Otep
Song- Fillthee

Intro:
w/wah   vibrato all these
C |----------------------------------------------------------------------------|
G |--15-15-15-15-15-15-15-15--14-14-14-14-14-14-14-14--13-13-13-13-13-13-13-13-|
Eb|----------------------------------------------------------------------------|
Bb|----------------------------------------------------------------------------|
F |----------------------------------------------------------------------------|
Bb|----------------------------------------------------------------------------|
                                                                      
Verse 1:
C |------------------------------|
G |------------------------------|
Eb|------------------------------|
Bb|------------------------------|
F |------------------------------|
Bb|-0-0-4-4-3-3-6-6-3-3-4-4-3-3--|
    ...........................

Chorus:
C |-------------------|
G |-------------------|
Eb|-------------------|
Bb|-------------------|
F |--0-4-3--6-3--4-3--|
Bb|--0-4-3--6-3--4-3--|

C |----------------------------------------------------|
G |----------------------------------------------------|
Eb|----------------------------------------------------|
Bb|-------------------------------------------x//////--|
F |-0-0--0-0--0-0--0-0--0-0--0-0---0---------x//////---|
Bb|-0-0--0-0--0-0--0-0--0-0--0-0---0--------x//////----|
    ...  ...  ...  ...  ...  ...   .

Verse 2:
C |----------------------------------------------------|
G |----------------------------------------------------|
Eb|----------------------------------------------------|
Bb|----------------------------------------------------|
F |----------------------------------------------------|
Bb|-6-0-0-0-0-0-0-6-0-6-0-6-0-0-0-0-0-0-3-3-3-6-6-6-6--|
[ Tab from: http://www.guitartabs.cc/tabs/o/otep/filthee_tab_ver_2.html ]
C |------------------------------------------------------|
G |--12--------12-12-------12-12--/15-15-15-15-15-15-15--|
Eb|--11--------11-11-------11-11--/14-14-14-14-14-14-14--|
Bb|------------------------------------------------------|
F |------------------------------------------------------|
Bb|-----0-0-0--------0-0-0-------------------------------|
        .....        .....

C |----------------------------------|
G |--12--------12-12-------12-12--\\-|
Eb|--11--------11-11-------11-11--\\-|
Bb|----------------------------------|
F |----------------------------------|
Bb|-----0-0-0--------0-0-0-----------|
        .....        .....

C |----------------------------------|
G |----------------------------------|
Eb|----------------------------------|
Bb|----------------------------------|
F |----------------------------------|
Bb|--0-0--0-0--0-0--0-0--0-0--0-0----|
     ...  ...  ...  ...  ...  ...

C |------------------------------|
G |------------------------------|
Eb|------------------------------|
Bb|------------------------------|
F |------------------------------|
Bb|-0-0-0-8-8-8-0-0-0-8-8-8-0-8--|

C |--------------------------------|
G |--------------------------------|
Eb|--------------------------------|
Bb|--------------------------------|
F |-0-0-0--8-8-8-0-0-0--8-8-8-0--8-|
Bb|-0-0-0--8-8-8-0-0-0--8-8-8-0--8-|

C |--------------------------------|
G |--------------------------------|
Eb|--------------------------------|
Bb|--------------------------------|
F |-0-0-0---8----0-0-0----8---0--7-|
Bb|-0-0-0---8----0-0-0----8---0--7-|
    .....        .....        .

C |---------------------------------x//---|
G |--12--------12-12-------12-12---x//----| 
Eb|--11--------11-11-------11-11--x//-----|
Bb|---------------------------------------|
F |---------------------------------------|
Bb|-----0-0-0--------0-0-0----------------|
        .....        .....

gtr1
C |--------------|
G |-15-14~~~~~---|vibrato these again
Eb|--------------|
Bb|--------------|
F |--------------|
Bb|--------------|
gtr2
C |-------------------------|
G |-------------------------|
Eb|-------------------------|
Bb|-------------------------|
F |-------------------------|
Bb|-0-6-3-0-3-0-3-0-3-0-3~--|


Comments