Otep - Filthee Chords & Tabs

 

Filthee Chords & Tabs

Otep Chords & Tabs

Version: 1 Type: Tab

Filthee Tab

   
OTEP
Filthee


Intro:
e|----------------------------------------|
B|----------------------------------------|
G|----------------------------------------|
D|-1-1-1-3-5-5-5-5-5-0-0-0-3-5-5-5-5-5----|
A|-1-1-1-3-5-5-5-5-5-0-0-0-3-5-5-5-5-5----|
E|-1-1-1-3-5-5-5-5-5-0-0-0-3-5-5-5-5-5----|
                    P.M.--|
[ Tab from: http://www.guitartabs.cc/tabs/o/otep/filthee_tab.html ]
e|----------------------------------------|
B|----------------------------------------|
G|----------------------------------------|
D|-1-1-1-3-5-5-5-5-5-0-0-0-3-5-5-5-5-5----|
A|-1-1-1-3-5-5-5-5-5-0-0-0-3-5-5-5-5-5----|
E|-1-1-1-3-5-5-5-5-5-0-0-0-3-5-5-5-5-5----|
                    P.M.--|

e|----------------------------------------|
B|----------------------------------------|
G|----------------------------------------|
D|-1-1-1-3-5-5-5-5-5-0-0-0-3-5-5-5-5-5----|
A|-1-1-1-3-5-5-5-5-5-0-0-0-3-5-5-5-5-5----|
E|-1-1-1-3-5-5-5-5-5-0-0-0-3-5-5-5-5-5----|
                    P.M.--|

Will do the rest later.
Jason.B