Otep - Battle Ready Chords & Tabs

 

Battle Ready Chords & Tabs

Otep Chords & Tabs

Version: 1 Type: Tab 0 ratings
1 star 2 stars 3 stars 4 stars 5 stars
comments

Battle Ready Tab

Band- Otep
Song- Battle Ready

Starting: X 4                Then, after the first scream: X 4
C  |---------------------------||---------------------------||
G  |---------------------------||---------------------------||
Eb |---------------------------||---------------------------||
Bb |---------------------------||--3-0-3-0-3-0-3-0-3-0-0-0--||
F  |---------------------------||--3-0-3-0-3-0-3-0-3-0-0-0--||
Bb |--3-0-3-0-3-0-3-0-3-0-0-0--||--3-0-3-0-3-0-3-0-3-0-0-0--||
      * * * * * * * * * * * *      * * * * * * * * * * * * 
    
    Verse:
   
    Riff 1 (the 3� and 4�times have more picking on the string but is the same) 
C  |---------------------------|-------------------------||
G  |---------------------------|-------------------------||
Eb |---------------------------|-------------------------||
Bb |---------------------------|-------------------------||
F  |---------------------------|-------------------------||
Bb |--3-2--3-2--3-2--3-2--3-2--|--3-2--3-2--3-2--3-2--1--||
      * *  * *  * *  * *  * *     * *  * *  * *  * *  

    Riff 2  
C  |---------------------------|-------------------------||
G  |---------------------------|-------------------------||
Eb |---------------------------|-------------------------||
Bb |--3-2--3-2--3-2--3-2--3-2--|--3-2--3-2--3-2--3-2--1--||
F  |--3-2--3-2--3-2--3-2--3-2--|--3-2--3-2--3-2--3-2--1--||
Bb |--3-2--3-2--3-2--3-2--3-2--|--3-2--3-2--3-2--3-2--1--||
      
    Chorus (the pre-chorus is the same) 
C  |---------------||
G  |---------------||
Eb |---------------||
Bb |--0-6-5-0-3-2--||
F  |--0-6-5-0-3-2--||
Bb |--0-6-5-0-3-2--||

    Riff 3 
C  |---------------------------||
G  |---------------------------||
Eb |---------------------------||
Bb |---------------------------||
F  |--3-5-5-5-6-5-3-3-5-5-6-5--||
Bb |---------------------------||
[ Tab from: http://www.guitartabs.cc/tabs/o/otep/battle_ready_tab.html ]
    Riff 4
C  |---------------------------------------||
G  |---------------------------------------||
Eb |---------------------------------------||
Bb |--10-12-12-12-13-12-10-10-12-12-13-12--||
F  |--10-12-12-12-13-12-10-10-12-12-13-12--||
Bb |--10-12-12-12-13-12-10-10-12-12-13-12--||



    Riff 5
C  |---------------------------------|-----------------------------||
G  |---------------------------------|-----------------------------||
Eb |---------------------------------|-----------------------------||
Bb |--3-2-2-3-2-2-3-2-2-3-2-2-3-2-2--|--3-2-2-3-2-2-3-2-2-3-2-2-1--||
F  |---------------------------------|-----------------------------||
Bb |---------------------------------|-----------------------------||

    Riff 6
C  |------------------------------|----------------------------||
G  |------------------------------|----------------------------||
Eb |------------------------------|----------------------------||
Bb |------------------------------|----------------------------||
F  |------------------------------|----------------------------||
Bb |--3-2-2-3-2--3-2--3-2--3-2-2--|--3-2-2-3-2--3-2--3-2--1-1--||
      * * * * *  * *  * *  * * *     * * * * *  * *  * *  * *                             

    Riff 7
C  |------------------------------|----------------------------||
G  |------------------------------|----------------------------||
Eb |------------------------------|----------------------------||
Bb |--3-2-2-3-2--3-2--3-2--3-2-2--|--3-2-2-3-2--3-2--3-2--1-1--||
F  |--3-2-2-3-2--3-2--3-2--3-2-2--|--3-2-2-3-2--3-2--3-2--1-1--||
Bb |--3-2-2-3-2--3-2--3-2--3-2-2--|--3-2-2-3-2--3-2--3-2--1-1--||
      * * * * *  * *  * *  * * *     * * * * *  * *  * *  * *
    
    Ending
C  |-----||
G  |-----||
Eb |-----||
Bb |--1--||
F  |--1--||
Bb |--1--||


That�s it!!!! It is quite correct, I think. I hope you�ll enjoy it!

HERE�S THE SONG�S STRUCTURE.

STARTING (X 4)(x 4)
RIFF 1   (X 4)
RIFF 2   (X 2)
CHORUS   (X 4)
RIFF 1   (X 4)
RIFF 2   (X 2)
CHORUS   (X 8)
RIFF 1   (X 1 time and a Half)
RIFF 2   (X 2)
CHORUS   (X 8)
RIFF 3   (X 8)
RIFF 4   (X 8)
CHORUS   (X 8)
RIFF 5   (X 2)
RIFF 2   (X 2)
RIFF 6   (X 1)
RIFF 7   (X 3)
ENDING
Comments