Otep - Battle Ready Chords & Tabs

 

Battle Ready Chords & Tabs

Otep Chords & Tabs

Version: 1 Type: Bass Tab 0 ratings
1 star 2 stars 3 stars 4 stars 5 stars
comments

Battle Ready Bass Tab

Band- Otep
Song- Battle Ready

G|-------------------------------|
D|-------------------------------|
A|-------------------------------|
E|--6-6-6-6-9-6-6-6-9-6-6-6-6-9--|

G|-----------------------------------|
D|-----------------------------------|
A|--4-3-3-3-4-3-3-r-4-3-3-3-4-3-3-2--|
E|-----------------------------------|
[ Tab from: http://www.guitartabs.cc/tabs/o/otep/battle_ready_btab.html ]
G|-----------------------------------|
D|-----------------------------------|
A|--------7-7-7-6-6-6----------------|
E|--6-6-6-------------9-9-9-7-7-7-7--|

G|--------------|
D|--------------|
A|-----7-6------|
E|--6------9-7--|

G|------------------------------------|
D|------------------------------------|
A|--4p3-3-3-4p-3-3-r-4p3-3-3-4p3-3-2--|
E|------------------------------------|

p - pull off NOT pop
Comments