Ossian - Haragban A Vilaggal Chords & Tabs

 

Haragban A Vilaggal Chords & Tabs

Ossian Chords & Tabs

Version: 1 Type: Tab 0 ratings
1 star 2 stars 3 stars 4 stars 5 stars
comments

Haragban A Vilaggal Tab

Ossian - Haragban a világgal



Nyitó RIFF

    5/4                                  4/4
E||------------------------------------|------------------------|
B||------------------------------------|------------------------|
G||------------------------------------|------------------------|
D||------------------------------------|--5----------------5~---|
A||--2-2-2-2-2--4-4-4-4-4--5-5---5-5---|--3------3-5-3--2--3~---|
E||--0-0-0-0-0--2-2-2-2-2--2-2---3-3---|------------------------|


                            5/4
--------------------------|------------------------------------|
--------------------------|------------------------------------|
--------------------------|------------------------------------|
--------------------------|------------------------------------|
----3-5-3--2--3--2--------|--2-2-2-2-2--4-4-4-4-4--5-5---5-5---|
--------------------3--2--|--0-0-0-0-0--2-2-2-2-2--2-2---3-3---|


4/4                                                         
--------------------------|-----------------------------|
--------------------------|-----------------------------|
--------------------------|------------------------2----|
--2------------------2----|------------------------0----|
--0--------0-3-0---0-0----|------0-3-0---0-3-0---0------|
---------3-------3--------|----3-------3-------3--------|


5/4                                   4/4
------------------------------------|------------------------|
------------------------------------|------------------------|
------------------------------------|------------------------|
------------------------------------|--5----------------5~---|
--2-2-2-2-2--4-4-4-4-4--5-5---5-5---|--3------3-5-3--2--3~---|
--0-0-0-0-0--2-2-2-2-2--2-2---3-3---|------------------------|


                            5/4
--------------------------|------------------------------------|
--------------------------|------------------------------------|
--------------------------|------------------------------------|
--------------------------|------------------------------------|
----3-5-3--2--3--2--------|--2-2-2-2-2--4-4-4-4-4--5-5---5-5---|
--------------------3--2--|--0-0-0-0-0--2-2-2-2-2--2-2---3-3---|


4/4                                        
-------------------|------------------||
-------------------|------------------||
-------------------|------------------||
-------------------|------------------||
--2----------------|------------------||
--0----------------|------------------||



RIFF I. (kíséret) (2x2)
                                                          
E||--------------------------|---------------------------|
B||--------------------------|---------------------------|
G||--------------------------|---------------------------|
D||--------9---10-------7----|--------5------------4--5--|
A||--------10-----------9----|--------7------------5-----|
E||--0--0----------0---------|--0--0-------0-0-0-0-------|



--------------------------|-----------------------------|
--------------------------|-----------------------------|
--------------------------|-----------------------------|
--------9---10-------7----|--7-7-7-7-7----7-7-7-7-4--5--|
--------10-----------9----|--5-5-5-5-5----5-5-5-5-5-----|
--0--0----------0---------|-----------------------------|


[ Tab from: http://www.guitartabs.cc/tabs/o/ossian/haragban_a_vilaggal_tab.html ]
Riffek közti átköt?
                                                          
-----------------------------|---------------------------|
-----------------------------|---------------------------|
--4--4-4-4-4-4--4-4-4-4-4----|--4--4-4-4-----------------|
--4--4-4-4-4-4--4-4-4-4-5----|--4--4-4-4--3-----3-----3--|
--2--2-2-2-2-2--2-2-2-2-2----|--2--2-2-2-----2-----2-----|
-----------------------------|---------------------------|


                                                           
-----------------------------|----------------------------|
-----------------------------|----------------------------|
--4--4-4-4-4-4--4-4-4-4-4----|----------------------------|
--4--4-4-4-4-4--4-4-4-4-5----|----------------------------|
--2--2-2-2-2-2--2-2-2-2-2----|----0--5-5-0-0-5-5-0-0-6~---|
-----------------------------|----------------------------|



RIFF II.
                                                      
--------------------------|--------------------------|
--------------------------|--------------------------|
--------------------------|--------------------------|
--------------------------|--------------------------|
--2----2--2--2--2--2--2-2-|--2--2--2--2--2--2--2--2--|
--0----0--0--0--0--0--0-0-|--0--0--0--0--0--0--0--0--|


"Éppen úgy érzett..."                                                      
--------------------------|--------------------------|
--------------------------|--------------------------|
--------------------------|--------------------------|
--------------------------|--------------------------|
--2--2--2--2--2--2--2--2--|--2--2--2--2--2--2--2--2--|
--0--0--0--0--0--0--0--0--|--0--0--0--0--0--0--0--0--|

                                                       


--------------------------|---------------------------|
--------------------------|---------------------------|
--------------------------|---------------------------|
--------------2--2--2--2--|---------------------------|
--2--2--2--2--0--0--0--0--|--4--4--4--4--5--5--5--5-5-|
--0--0--0--0--------------|--2--2--2--2--3--3--3--3-3-|

  
                                                    
--------------------------|--------------------------|
--------------------------|--------------------------|
--------------------------|--------------------------|
--------------------------|--------------------------|
--2--2--2--2--2--2--2--2--|--2--2--2--2--2--2--2--2--|
--0--0--0--0--0--0--0--0--|--0--0--0--0--0--0--0--0--|



--------------------------|--------------------------|
--------------------------|--------------------------|
--------------------------|--------------------------|
--------------2--2--2--2--|--------------------------|
--2--2--2--2--0--0--0--0--|--4--4--4--4--5--5--5--5--|
--0--0--0--0--------------|--2--2--2--2--3--3--3--3--|



Refrén (2x)

|------------------------|-------------------------|
|------------------------|-------------------------|
|------------------------|-------------------------|
|--2----2-----2----2--2--|--2-----------2----2--2--|
|--0----0-----0----0--0--|--0--3h-0-----0----0--0--|
|----------3-------------|-----------3-------------|


                                                                         
-------------------------|--------------------|
-------------------------|--------------------|
-------------------------|--2-----------------|
--2--2-----2--2----2--2--|--0-----------------|
--0--0--0--0--0----0--0--|-----------2--------|
-------------------------|-----------3--------|
Comments