Osker - Someday Chords & Tabs

 

Someday Chords & Tabs

Osker Chords & Tabs

Version: 1 Type: Tab 0 ratings
1 star 2 stars 3 stars 4 stars 5 stars
comments

Someday Tab

OSKER

Someday    ME FAVE!!!!!!!!!!!!!!

tabbed by Daz Taylor  daztaylor84@hotmail.com



intro 
----------|------------------------------------------------------------------- 
----------|------------------------------------------------------------------- 
-99999999-|-----9------------------------------------------9------------------ 
----------|---9---9--------11----------9---------7-------9---9---------------- 
----------|-7-------7---11----11-----9---9-----7---7---7-------7-------------- 
----------|-----------9----------9-7-------7-5-------5------------------------ 
[ Tab from: http://www.guitartabs.cc/tabs/o/osker/someday_tab.html ]
------------------------------------------------------------------------------ 
----------------10----------12------------------------------------------------ 
------11------9----9-----11----11--------------------------------------------- 
---11----11-7--------7-9----------9------------------------------------------- 
-9---------------------------------------------------------------------------- 
------------------------------------------------------------------------------ 

verse 
-------------------|----------------------|----------------------------------- 
-------------------|----------------------|----------------------------------- 
-------------------|----------------------|----------------------------------- 
-9-9------------9--|-9-9-----9-9-9-9-9-9-9|----------------------------------- 
-7-7-9-9-7-7-7--7-9|-7-7-9-9-7-7-7-7-7-7-7|-7-7-7-7-7-9-9-9-9-9--------------- 
-----7-7-5-5------7|-----7-7--------------|-5-5-5-5-5-7-7-7-7-7--------------- 

chorus 
------------------------------------------------------------------------------ 
------------------------------------------------------------------------------ 
------------------------------------------------------------------------------ 
-9-9-9-9-9-9-9-9-------------------------------------------------------------- 
-7-7-7-7-7-7-7-7-7-7-7-7-7-7-7-7---------------------------------------------- 
-----------------5-5-5-5-5-5-5-5---------------------------------------------- 
Comments