Osker - Radio Chords & Tabs

 

Radio Chords & Tabs

Osker Chords & Tabs

Version: 1 Type: Tab 0 ratings
1 star 2 stars 3 stars 4 stars 5 stars
comments

Radio Tab

OSKER

Radio

tabbed by Daz Taylor  daztaylor84@hotmail.com

INTRO (guitar1) 
-----------|------------------------------------------------------------------ 
-----------|------------------------------------------------------------------ 
---------4-|-2-2-2-2-2-2-2-2-2-2-2-2------------------------------------------ 
-------2---|-2-2-2-2-2-2-2-2-2-2-2-2-2-2-2-2-2-2------------------------------ 
-----4-----|-0-0-0-0-0-0-0-0-0-0-0-0-2-2-2-2-2-2------------------------------ 
-0---------|-------------------------0-0-0-0-0-0------------------------------ 

(guitar2) 
------------------------------------------------------------------------------ 
------------------------------------------------------------------------------ 
-------------2-2-2-2-2-2-4-4-4-2-2-1------------------------------------------ 
-------------2-2-2-2-2-2-2-2-2-2-2-2-2-2-2-2-xxx------------------------------ 
-------------0-0-0-0-0-0-0-0-0-0-0-0-2-2-2-2-xxx------------------------------ 
-------------------------------------0-0-0-0---------------------------------- 

VERSE I (guitar1) 
-------------------------------------------------------------------------||--- 
-------------------------------------------------------------------------||--- 
-------------------------4-4-4-4-4-4-4-4-4-4-4-4-------------------------||--- 
-------------------------4-4-4-4-4-4-4-4-4-4-4-4-2-2-2-2-2-2-2-2-2-2-2-2-||--- 
-2-2-2-2-2-2-2-2-2-2-2-2-2-2-2-2-2-2-2-2-2-2-2-2-0-0-0-0-0-0-0-0-0-0-0-0-||2-- 
-0-0-0-0-0-0-0-0-0-0-0-0-------------------------------------------------||0-- 
x x x x x x x x x x x x x x x x x x x x x x x x x x x x x x x x x x x x x 

-----------------------|------------------------------------------------------ 
-----------------------|------------------------------------------------------ 
-----------------------|4-4-4-4-4-4-4-4-4-4-4-4------------------------------- 
-----------------------|4-4-4-4-4-4-4-4-4-4-4-4------------------------------- 
-2-2-2-2-2-2-2-2-2-2-2-|2-2-2-2-2-2-2-2-2-2-2-2------------------------------- 
-0-0-0-0-0-0-0-0-0-0-0-|------------------------------------------------------ 
x x x x x x x x x x x last time through 
(guitar2) 
-------------------------------------------------||--------------------------- 
-------------------------------------------------||--------------------------- 
-------------------------4-4-4-4-4-4-4-4-4-4-4-4-||--------------------------- 
-------------------------2-2-2-2-2-2-2-2-2-2-2-2-||2-2-2-2-2-2-2-2-2-2-2-2---- 
-2-2-2-2-2-2-2-2-2-2-2-2-2-2-2-2-2-2-2-2-2-2-2-2-||0-0-0-0-0-0-0-0-0-0-0-0-2-- 
-0-0-0-0-0-0-0-0-0-0-0-0-------------------------||------------------------0-- 
x x x x x x x x x x x x x x x x x x x x x x x x x x x x x x x x x x x x x 
[ Tab from: http://www.guitartabs.cc/tabs/o/osker/radio_tab.html ]
-----------------------|------------------------------------------------------ 
-----------------------|------------------------------------------------------ 
-----------------------|4-4-4-2-2-2-1-1-1-2-2-2-4-4-4-4-4-4-4-4-4-4-4-4------- 
-----------------------|------------------------4-4-4-4-4-4-4-4-4-4-4-4------- 
-2-2-2-2-2-2-2-2-2-2-2-|------------------------2-2-2-2-2-2-2-2-2-2-2-2------- 
-0-0-0-0-0-0-0-0-0-0-0-|------------------------------------------------------ 
x x x x x x x x x x x last time through 
CHORUS 
-------------------------------------||------------|-------------------------- 
-------------------------------------||------------|-------------------------- 
-------------------------------------||------------|-------------------------- 
-2-2-2-2-2-2-4-4-4-4-4-4-7-7-7-7-7-7-||7-7-7-7-7-7-|77777777777--------------- 
-2-2-2-2-2-2-4-4-4-4-4-4-7-7-7-7-7-7-||7-7-7-7-7-7-|-------------------------- 
-0-0-0-0-0-0-2-2-2-2-2-2-5-5-5-5-5-5-||5-5-5-5-5-5-|-------------------------- 
last time through(guitar2) 
VERSE II (guitar1) 
-------------------------------------------------------------------------||--- 
-------------------------------------------------------------------------||--- 
-------------------------------------------------------------------------||--- 
-------------------------4-4-4-4-4-4-4-4-4-4-4-4-2-2-2-2-2-2-2-2-2-2-2-2-||--- 
-2-2-2-2-2-2-2-2-2-2-2-2-2-2-2-2-2-2-2-2-2-2-2-2-0-0-0-0-0-0-0-0-0-0-0-0-||-2- 
-0-0-0-0-0-0-0-0-0-0-0-0-------------------------------------------------||-0- 
x x x x x x x x x x x x x x x x x x x x x x x x x x x x x x x x x x x x x 

-----------------------|------------------------------------------------------ 
-----------------------|------------------------------------------------------ 
-----------------4-4-4-|4-4-4-4-4-4-4-4-4-4-4-4------------------------------- 
-----------------2-2-2-|4-4-4-4-4-4-4-4-4-4-4-4------------------------------- 
-2-2-2-2-2-2-2-2-------|2-2-2-2-2-2-2-2-2-2-2-2------------------------------- 
-0-0-0-0-0-0-0-0-------|------------------------------------------------------ 
x x x x x x x x last time through 
(guitar2) 
-------------------------------------------------||--------------------------- 
-------------------------------------------------||--------------------------- 
-------------------------4-4-4-4-4-4-4-4-4-4-4-4-||--------------------------- 
-------------------------2-2-2-2-2-2-2-2-2-2-2-2-||2-2-2-2-2-2-2-2-2-2-2-2---- 
-2-2-2-2-2-2-2-2-2-2-2-2-2-2-2-2-2-2-2-2-2-2-2-2-||0-0-0-0-0-0-0-0-0-0-0-0-2-- 
-0-0-0-0-0-0-0-0-0-0-0-0-------------------------||------------------------0-- 
x x x x x x x x x x x x x x x x x x x x x x x x x x x x x x x x x x x x x 

-----------------------|------------------------------------------------------ 
-----------------------|------------------------------------------------------ 
-----------------4-4-4-|4-4-4-2-2-2-1-1-1-2-2-2-4-4-4-4-4-4-4-4-4-4-4-4------- 
-----------------2-2-2-|------------------------4-4-4-4-4-4-4-4-4-4-4-4------- 
-2-2-2-2-2-2-2-2-------|------------------------2-2-2-2-2-2-2-2-2-2-2-2------- 
-0-0-0-0-0-0-0-0-------|------------------------------------------------------ 
x x x x x x x x last time through 
BRIDGE (guitar1) 
------------------------------------------------------------------------------ 
------------------------------------------------------------------------------ 
-------4---------4-2-1-----4-2-1-------4---------4-2-1-----4-2-1-------------- 
-2-----4-------2---------2-------2-----4-------2---------2-------2-----2--pick 
-2-----2-----4---------4---------2-----2-----4---------4---------2-----2--slide 
-0-------------------------------0-------------------------------0-----0------ 

(guitar2) 
------------------------------------------------------------------------------ 
------------------------------------------------------------------------------ 
-------4-----2-----------------4-----2------------------------4-4-4-4-4-4----- 
-2-----4-----2-----2-----2-----4-----2-----222222-2-----2-----4-4-4-4-4-4----- 
-2-----2-----0-----2-----2-----2-----0-----000000-2-----2-----2-2-2-2-2-2----- 
-0-----------------0-----0------------------------0-----0--------------------- 

REST OF BRIDGE (both guitars) 
------------------------------------------------------------------------------ 
------------------------------------------------------------------------------ 
-------------1-2-1------------1-2-1------------1-2-1------------1-2-1--------- 
-2-----------------4-2--2--4--------4-2--2--4--------4-2--2--4--------4-2-2--- 
-2---------------------------------------------------------------------------- 
-0---------------------------------------------------------------------------- 

OUTRO same as intro 
Comments