Osker - Panic Chords & Tabs

 

Panic Chords & Tabs

Osker Chords & Tabs

Version: 1 Type: Tab 0 ratings
1 star 2 stars 3 stars 4 stars 5 stars
comments

Panic Tab

OSKER

Panic

tabbed by Daz Taylor  daztaylor84@hotmail.com


intro 
------------------------------------------------------------------------------ 
------------------------------------------------------------------------------ 
------------------------------------------------------------------------------ 
---7-----5---------5-5-5------------------------------------------------------ 
-7-5-7-5-3-5-3-3-3-3-3-3------------------------------------------------------ 
-5---5-3---3-1-1-1-1-1-1------------------------------------------------------ 

verse 
------------------------------------------------------------------------------ 
------------------------------------------------------------------------------ 
------------------------------------------------------------------------------ 
---------5-5------------------------------------------------------------------ 
-7-7-7-5-3-3-3-3-3-3-3-3------------------------------------------------------ 
-5-5-5-3-----1-1-1-1-1-1------------------------------------------------------ 

prechorus 
------------------------------------------------------------------------------ 
------------------------------------------------------------------------------ 
------------------------------------------------------------------------------ 
-5-5-5-5-5-5------------------------------------------------------------------ 
-3-3-3-3-3-3-5-5-5-5-5-5-3-3-3-3-3-3-3-3-3-3-3-3------------------------------ 
-------------3-3-3-3-3-3-1-1-1-1-1-1-1-1-1-1-1-1------------------------------ 
[ Tab from: http://www.guitartabs.cc/tabs/o/osker/panic_tab.html ]
(guitar 2) 
------------------------------------------------------------------------------ 
-------------------------------------6-5-6-8-5-6------------------------------ 
------------------------------------------------------------------------------ 
------------------------------------------------------------------------------ 
------------------------------------------------------------------------------ 
------------------------------------------------------------------------------ 

chorus 
-------------------------|---------------------------------------------------- 
-------------------------|---------------------------------------------------- 
-------------------------|---------------------------------------------------- 
-------5-5-5-------------|-7-------------------------------------------------- 
-7-7-7-3-3-3-5-5-5-5-5-5-|-7-------------------------------------------------- 
-5-5-5-------3-3-3-3-3-3-|-5-------------------------------------------------- 
last chord of song 
verse 2 
------------------------------------------------------------------------------ 
------------------------------------------------------------------------------ 
------------------------------------------------------------------------------ 
------------------------------------------------------------------------------ 
-7-----3--5--3---------------------------------------------------------------- 
-5-----1--3--1---------------------------------------------------------------- 

bridge 
------------------------------------------------------------------------------ 
------------------------------------------------------------------------------ 
------------------------------------------------------------------------------ 
------------------------------------------------------------------------------ 
---77-77---77-77---33-33---55-55---------------------------------------------- 
-5-------5-------1-------3---------------------------------------------------- 
Comments